Log in

One click and you are in

Login with Facebook Login with Google

Why sign up and log in

Guitar Tabs Explorer
Homestuck guitar tabs for Vriskas theme

Guitar tabs

Album: AlterniaBound
Tabbed by: gustavoaraujo999@hotmail.com


0:00
e|-10---------------------------------------------------------------|
B|-10---------------------------------------------------------------|
G|-----10------------10----------------------12b13----12-10---------|
D|--------12---10-12----10-12----------------------10---------------|
A|------------------------------14--12-14-12------------------------|
E|------------------------------------------------------------------|

e|------------------------------------------------------------------13-|
B|-10-9------------------13--10---------------------------------13-----|
G|------12-10---10----10---------12-12b13-12-10-------13-12-10---------|
D|-----------------12--------------------------------------------------|
A|---------------------------------------------------------------------|
E|---------------------------------------------------------------------|


0:09
e|---------------------------10----------------------------------16-15-13-------------|
B|-------13-13---------13-13----13---13-15-13---14b15--13----15-----------13----------|
G|-------12-12---------12-12------------------------------14------------------16-15-14|
D|-10h12---------10h12----------------------------------------------------------------|
A|------------------------------------------------------------------------------------|
E|------------------------------------------------------------------------------------|

e|-------------------------------------------------|
B|-----10-9----------------------------------------|
G|----------12-10-------------12b13-12-10-10b12----|
D|--12-------------12-10-12---------------------10-|
A|-------------------------------------------------|
E|-------------------------------------------------|

0:19
e|-10-------------------------------------------10---------------|
B|-10---10---------------10------13---13-10-13-------------13----|
G|---------10---------10----10---12---------------------12-------|
D|--------------10-12--------------------------------12----------|
A|---------------------------------------------------------------|
E|---------------------------------------------------------------|

e|--------------------------------------10--------------------13-12--13--16-|
B|-10-9------------------13-10-13-10-13----13-10-----10-13------------------|
G|------12-10------10-12-------------------------10-------------------------|
D|--------------12----------------------------------------------------------|
A|--------------------------------------------------------------------------|
E|--------------------------------------------------------------------------|


0:27
e|---------------------------10-13---------------13--------------16-15-13-15-13-|
B|-------13-13---------13-13---------10-13-10----13-13-10-----------------------|
G|-------12-12---------12-12------------------------------12--------------------|
D|-10h12---------10h12---------------------------------------12-----------------|
A|------------------------------------------------------------------------------|
E|------------------------------------------------------------------------------|

e|-------------------------------------------------------------|
B|-10-9--------------------------------------------------------|
G|------12-10-10-----------12b13-12-10-10b12-------------------|
D|---------------12-10-12--------------------10----------------|
A|-------------------------------------------------------------|
E|-------------------------------------------------------------|

0:35
Interlude

0:50
e|------------------------------------------------------------|
B|----15--15--------------------------------------------------|
G|----------------------10----------------------13---12-12-10-|
D|-12-------------10-12----10-12----10-10-12-10---------------|
A|------------------------------------------------------------|
E|------------------------------------------------------------|

e|-----------------------------------------------13-15-17>---------|
B|-----------------------------------------------------------------|
G|----------10---------13---12-12-10--13-12-10---------------------|
D|-10-12-------10--------------------------------------------------|
A|----------------12-----------------------------------------------|
E|-----------------------------------------------------------------|


1:10
e|-10----------------------------10----------------------------|
B|-10----------------------------------------------------------|
G|-----10-------------10------------------------12b13----12-10-|
D|--------12----10-12----10-12----------10------------10-------|
A|-----------------------------------12----12------------------|
E|-------------------------------------------------------------|

e|-------------------------------------------------------------|
B|-10-9------------------13-10---------------------------------|
G|------12-10---10----10-------12-12b13-12-10--131210-9-10-----|
D|-----------------12------------------------------------------|
A|-------------------------------------------------------------|
E|-------------------------------------------------------------|


1:18
e|---------------------------10-13---------------13--------------16-15-13-15-13-|
B|-------13-13---------13-13---------10-13-10----13-13-10-----------------------|
G|-------12-12---------12-12------------------------------12--------------------|
D|-10h12---------10h12---------------------------------------12-----------------|
A|------------------------------------------------------------------------------|
E|------------------------------------------------------------------------------|

e|-------------------------------------------------------------|
B|-10-9--------------------------------------------------------|
G|------12-10-10-----------12b13-12-10-10b12-------------------|
D|---------------12-10-12--------------------10----------------|
A|-------------------------------------------------------------|
E|-------------------------------------------------------------|


1:27
e|---------------------------10-13---------------13--------------16-15-13-15-13-|
B|-------13-13---------13-13---------10-13-10----13-13-10-----------------------|
G|-------12-12---------12-12------------------------------12--------------------|
D|-10h12---------10h12---------------------------------------12-----------------|
A|------------------------------------------------------------------------------|
E|------------------------------------------------------------------------------|

e|-------------------------------------------------------------|
B|-10-9--------------------------------------------------------|
G|------12-10-10-----------12b13-12-10-10b12-------------------|
D|---------------12-10-12--------------------10----------------|
A|-------------------------------------------------------------|
E|-------------------------------------------------------------|

Almost there ...

Sign in to get your own page with links to favourite songs and more. You are just one click away...

Login with Facebook Login with Google