Log in

One click and you are in

Login with Facebook Login with Google

Why sign up and log in

Guitar Tabs Explorer
Homestuck guitar tabs for Harlequin

Guitar tabs

Album: Homestuck Vol.1-4
Tabbed by: gustavoaraujo999@hotmail.com

**Some parts don't translate well from the piano; i recommend neglecting some of the notes.
**I'm sure some of the rhythm parts are wrong.


e|------------------------------------------------------------|
B|------------------------------------------------------------|
G|-14----12----14----15----14----12----14-12------------12-13-|
D|-------------------------------------------15---14-15-------|
A|------------------------------------------------------------|
E|------------------------------------------------------------|

e|-------------------------------------13-12------------12-13-|
B|-------------------------15----14----------15---14-15-------|
G|-14----12----14----15---------------------------------------|
D|------------------------------------------------------------|
A|------------------------------------------------------------|
E|------------------------------------------------------------|

e|-15----13----12--13-12--------------------------------12-13-|
B|-----------------------15-----------------------------------|
G|------------------------------14-15----14-----13-14---------|
D|------------------------------------------------------------|
A|------------------------------------------------------------|
E|------------------------------------------------------------|

e|-15----13----12---13-15-17----13-------17-17--16-17---------|
B|---------------------------------15-------------------------|
G|------------------------------------------------------------|
D|------------------------------------------------------------|
A|------------------------------------------------------------|
E|------------------------------------------------------------|



part 1.
e|-------------------------------------------|-----------------------------|
B|-------------------------------------------|-----------------------------|
G|-------------------------------------3-3---|-----------------------------|
D|----7---7-------5-5------7---7-------3-3---|----7---7-------5-----3---2--|
A|-5--8-5-8----4--7-7---5--8-5-8-------5-5---|-5--8-5-8----4-----7------4--|
E|----------------------------------6--------|-----------------------------|

part 2.
e|-------------------------------------------|-----------------------------|
B|-------------------------------------------|----------------6------------|
G|-------------------------------------6-6---|-------------------6--7---6--|
D|----7---7-------5-5------7---7-------x-x---|----7---7-----------------x--|
A|-5--8-5-8----4--7-7---5--8-5-8-------7-7---|-5--8-5-8----4------------7--|
E|----------------------------------6--------|-----------------------------|

part 3.
e|-----------------------------------------|--------------------------------------|
B|-----------------------------------------|--------------------------------------|
G|----------------3-3----------------------|----------------3-3-------------------|
D|----5---5-------5-5------7---7-------7-7-|----5---5-------5-5------7-7------7-7-|
A|----5---5----4--7-7---5--8-5-8-------8-8-|-7--5---5----4--7-7---5--8-8------8-8-|
E|-3--6-3-6-------------------------5------|----6-3-6----------------------5------|

e|-----------------------------------------|--------------------------------------|
B|-----------------------------------------|--------------------------------------|
G|----------------6-6----------------------|----3---3----------------2-2-2--------|
D|----5---5-------x-x------7---7-------7-7-|----3---3-------2-2------2-2-2--------|
A|----5---5----4--7-7---5--8-5-8-------8-8-|----5---5-------2-2------4-4-4--------|
E|-3--6-3-6-------------------------5------|-6----3------0--4-4---5---------------|

repeat.

Almost there ...

Sign in to get your own page with links to favourite songs and more. You are just one click away...

Login with Facebook Login with Google