Log in

One click and you are in

Login with Facebook Login with Google

Why sign up and log in

Guitar Tabs Explorer
Homestuck guitar tabs for Elevatorstuck

Solo tabs

e|-----------------------------|
B|-3-----7--5-7-5--3-----1-----|
G|----2---------------2------2-|
D|-----------------------------|
A|-----------------------------|
E|-----------------------------|

e|----------------------------|
B|-3-----7--5-7-8-10---10/7---|
G|----2-----------------------|
D|----------------------------|
A|----------------------------|
E|----------------------------|

e|-----------------------------|
B|-3-----7--5-7-5--3-----1-----|
G|----2---------------2------2-|
D|-----------------------------|
A|-----------------------------|
E|-----------------------------|

e|------------------------------------|
B|-3-----7--5-7-8-10---12-15-12-7-10--|
G|----2-------------------------------|
D|------------------------------------|
A|------------------------------------|
E|------------------------------------|

e|----------------------------------------------------------|
B|-12-12--7--10---8-7-10-8-7-5--7---10--12--13---10--8-7-10-|
G|----------------------------------------------------------|
D|----------------------------------------------------------|
A|----------------------------------------------------------|
E|----------------------------------------------------------|

e|---------------------|
B|-8-13-10--8--6-8---5-|
G|---------------------|
D|---------------------|
A|---------------------|
E|---------------------|

Repeat whole tab as many times as you wish.


************************************

| /  Slide up

Almost there ...

Sign in to get your own page with links to favourite songs and more. You are just one click away...

Login with Facebook Login with Google