Search tabs and chords

Search for song, artist or band

Log in

One click and you are in

Login with Facebook Login with Google

Why sign up and log in

Guitar Tabs Explorer
Homeshake guitar tabs for The shower scene

Guitar tabs

Verse:0:20-1:11:

e|-----------------------------------|
B|-------------------11-13-----------|
G|-5--6--8--8-11-10---------6---9-8--|(X4)
D|-----------------------------------|
A|-----------------------------------|
E|-----------------------------------|
Chorus:1:12-1:37:

e|---------------------|
B|---------------------|
G|-3--5-----6---9-9/8--|(X3)
D|-------4-------------|
A|---------------------|
E|---------------------|

e|-----------------------|
B|-----------------------|
G|-3--5-5-3---6---9-8-6--|
D|-----------------------|
A|-----------------------|
E|-----------------------|


Verse 2:1:38-2:02:

e|-----------------------------------|
B|-------------------11-13-----------|
G|-5--6--8--8-11-10---------6---9-8--|
D|-----------------------------------|
A|-----------------------------------|
E|-----------------------------------|

e|-------------------------------------|
B|---------------------11-13-----------|
G|-5--6--8--8-11br-10---------6---9-8--|
D|-------------------------------------|
A|-------------------------------------|
E|-------------------------------------|

Chorus:2:03-2:21:

e|-----------------------|
B|-----------------------|
G|-5/3--5----6---9-9/8---|
D|--------4--------------|
A|-----------------------|
E|-----------------------|

e|-----------------------|
B|----------------9------|
G|-3--5-----6---9---8br--|
D|-------4---------------|
A|-----------------------|
E|-----------------------|

e|---------------------|
B|---------------------|
G|-3--5-----6---9-9/8--|
D|-------4-------------|
A|---------------------|
E|---------------------|


Outro:2:22-2:31:

e|------------------------------------|
B|------------------------------------|
G|-3--5-5-3---6---9-8-6--4-3-1--------|
D|-----------------------------4-2-1--|
A|------------------------------------|
E|------------------------------------|



************************************

| br  Bend release
| /   Slide up

Other versions of The Shower Scene

The shower sceneChords

Almost there ...

Sign in to get your own page with links to favourite songs and more. You are just one click away...

Login with Facebook Login with Google