Log in

One click and you are in

Login with Facebook Login with Google

Why sign up and log in

Guitar Tabs Explorer
Homeshake bass tabs for The shower scene

Bass tabs

G|----------------------------------------------------------------------------|
D|------------------------------------13-15--------------------------14p13----|
A|------16-13-13----14-14-13h14h15-15-------13-----------------------------15-|
E|13-13----------16---------------------------------------12h14---------------|

G|-------------------------------------------------------------------------------|
D|------------------------------------13h15-----------------------------14p13----|
A|------16-13-13----14-14-13h14h15-15----------13-----------------------------15-|
E|13-13----------16-------------------------13---------------12h14---------------|

G|----------------------------------------------------------------------------|
D|------------------------------------13-15--------------------------14p13----|
A|------16-13-13----14-14-13h14h15-15-------13-----------------------------15-|
E|13-13----------16---------------------------------------12h14---------------|

G|-----------------------------------------------------------------|
D|------------------------------------13h15------------------------|
A|------16-13-13----14-14-13h14h15-15----------13------------------|
E|13-13----------16-------------------------13---------------12h14-|

G|---------------------------------------------------|
D|----------------13---------------11-------11h12-13-|
A|-------------------------11-13---------------------|
E|14-13-11---9h11----13-14------------13-11----------|

G|----------------------------------------------------------------------------------------|
D|-----------------11--------------13---------------11---------13-13-------14-13-11-13-11-|
A|13-------11-13----------------------------11-13-----------------------------------------|
E|---13-14------------13-11---9h11----13-14------------13-11---------11-14----------------|

G|----------------------------------------------------------------------------|
D|------------------------------------13-15--------------------------14p13----|
A|------16-13-13----14-14-13h14h15-15-------13-----------------------------15-|
E|13-13----------16---------------------------------------12h14---------------|

G|--------------------------------------------------------------|
D|------------------------------------13-15---------------------|
A|------16-13-13----14-14-13h14h15-15-------13------------------|
E|13-13----------16---------------------------------------12h14-|

G|---------------------------------------------------|
D|----------------13---------------11-------11h12-13-|
A|-------------------------11-13---------------------|
E|14-13-11---9h11----13-14------------13-11----------|

G|-------------------------------------------------------------------------|
D|-----------------11--------------13---------------11---------13-13-------|
A|13-------11-13----------------------------11-13--------------------------|
E|---13-14------------13-11---9h11----13-14------------13-11---------11-14-|

G|---------|
D|14-13-11-| x4
A|---------|
E|---------|

************************************

| h   Hammer-on
| p   Pull-off

Almost there ...

Sign in to get your own page with links to favourite songs and more. You are just one click away...

Login with Facebook Login with Google