Search tabs and chords

Search for song, artist or band

Log in

One click and you are in

Login with Facebook Login with Google

Why sign up and log in

Guitar Tabs Explorer
Homeshake bass tabs for Northern man

Bass tabs

Tuning: Standard (E A D G)

Difficulty: Novice

Intro/Verse - starts around 27s:

G|-----------------------------------------------------|
D|----------------------3------------------------3-----|
A|-3--3-5------3-3--3-5-----3--3-5------3-3--3-5-------|
E|--------6------------------------6---------------1h3-|

Chorus:

G|---------|---------|---------|---------|---------|------------------------------------|
D|---------|---------|---------|---------|---------|------------------------------------|
A|---------|---------|---------|---------|---------|---------------4-5--5-5-5--7--7-7-7-|
E|-5--5-5-5|-5--5-5-5|-5--5-5-5|-5--5-5-5|-5--5-5-5|-5--5-5-5--6-6----------------------|

Chorus variation:

G|---------|---------|---------|-------------------------------------------------------|
D|---------|---------|---------|-------------------------------------------------------|
A|---------|---------|---------|---------------4-5--5-5-5--7--7-7-7--------------------|
E|-5--5-5-5|-5--5-5-5|-5--5-5-5|-5--5-5-5--6-6----------------------5--5-5-5--3--3-3-3-|

Verse 2:

G|---------------------------------------------------------------------------------------------------------|
D|----------------------3------------------------3-------------------------3-------------------------3-----|
A|-3--3-5------3-3--3-5-----3--3-5------3-3--3-5------3--3-5------3-3--3-5------3--3-5------3-3--3-5-------|
E|--------6------------------------6----------------1--------6----------------1--------6---------------1h3-|

Chorus:

G|---------|---------|---------|---------|---------|------------------------------------|
D|---------|---------|---------|---------|---------|------------------------------------|
A|---------|---------|---------|---------|---------|---------------4-5--5-5-5--7--7-7-7-|
E|-5--5-5-5|-5--5-5-5|-5--5-5-5|-5--5-5-5|-5--5-5-5|-5--5-5-5--6-6----------------------|

Chorus variation:

G|---------|---------|---------|-------------------------------------------------------|
D|---------|---------|---------|-------------------------------------------------------|
A|---------|---------|---------|---------------4-5--5-5-5--7--7-7-7--------------------|
E|-5--5-5-5|-5--5-5-5|-5--5-5-5|-5--5-5-5--6-6----------------------5--5-5-5--3--3-3-3-|

Verse 3:

G|----------------------------------------------------------------------------------------------------------|
D|----------------------3------------------------3-------------------------3-------------------------3--5-3-|
A|-3--3-5------3-3--3-5-----3--3-5------3-3--3-5------3--3-5------3-3--3-5------3--3-5------3-3--3-5--------|
E|--------6------------------------6----------------1--------6----------------1--------6--------------------|

Verse 1 variation:

G|----------------------------------------------------|
D|----------------------3-----------------------3-----|
A|-3--3-5------3-3--3-5-----3--3-5-----3-3--3-5-------|
E|--------6---------------1--------6--------------1h3-|

Ontro:

G|---------|---------|---------|---------|---------|---------|---------|---------|----|
D|---------|---------|---------|---------|---------|---------|---------|---------|----|
A|---------|---------|---------|---------|---------|---------|---------|---------|----|
E|-5--5-5-5|-5--5-5-5|-5--5-5-5|-5--5-5-5|-5--5-5-5|-5--5-5-5|-5--5-5-5|-5--5-5-5|-5~-|


************************************

| You can play without the hammer-ons (1h3 will be 1-3) but I find it better with it
| h   Hammer-on


Hope you have a wonderful day.

************************************

Almost there ...

Sign in to get your own page with links to favourite songs and more. You are just one click away...

Login with Facebook Login with Google