Log in

One click and you are in

Login with Facebook Login with Google

Why sign up and log in

Guitar Tabs Explorer
Homeshake guitar tabs for I dont wanna

Guitar tabs

-------------------------------------------------------------------------------
                             I Don't Wanna - Homeshake
-------------------------------------------------------------------------------
Tabbed by: Ron Hambone
Tuning: Standard


Verse:
e|------------------------------------|
B|-----8-6--------------11-------13---|
G|---5-----6-6/8--10/12----12/14------| Repeat 4x
D|------------------------------------|
A|------------------------------------|
E|------------------------------------|


Chorus:
e|--------------------------------------|
B|---12-11-11-------11-------11---------|
G|---13-12----12-------12-------12------|
D|---14-13-------13-------13-------13---|
A|--------------------------------------|
E|--------------------------------------|

e|--------------------------------|
B|---9--8--8------8------8--------|
G|---10-9----9------9------9------|
D|---11-10-----10-----10-----10---|
A|--------------------------------|
E|--------------------------------|

e|-----------------------------------------------|
B|---7-6-6-----6-----6-------8---6-----6-----8---|
G|---6-5---5-----5-----5-----------5-----5-------|
D|---7-6-----6-----6-----6-----------6-----6-----|
A|-----------------------------------------------|
E|-----------------------------------------------|

e|--------------------------------------|
B|---12-11-11-------11-------11---------|
G|---13-12----12-------12-------12------|
D|---14-13-------13-------13-------13---|
A|--------------------------------------|
E|--------------------------------------|

e|--------------------------------|
B|---9--8--8------8------8--------|
G|---10-9----9------9------9------|
D|---11-10-----10-----10-----10---|
A|--------------------------------|
E|--------------------------------|

e|-------------------------------|
B|---7-6-6-----6-----6-------8---|
G|---6-5---5-----5-----5---------|
D|---7-6-----6-----6-----6-------|
A|-------------------------------|
E|-------------------------------|

Verse:
e|------------------------------------|
B|-----8-6--------------11-------13---|
G|---5-----6-6/8--10/12----12/14------| Repeat 4x
D|------------------------------------|
A|------------------------------------|
E|------------------------------------|


Chorus:
e|--------------------------------------|
B|---12-11-11-------11-------11---------|
G|---13-12----12-------12-------12------|
D|---14-13-------13-------13-------13---|
A|--------------------------------------|
E|--------------------------------------|

e|--------------------------------|
B|---9--8--8------8------8--------|
G|---10-9----9------9------9------|
D|---11-10-----10-----10-----10---|
A|--------------------------------|
E|--------------------------------|

e|-----------------------------------------------|
B|---7-6-6-----6-----6-------8---6-----6-----8---|
G|---6-5---5-----5-----5-----------5-----5-------|
D|---7-6-----6-----6-----6-----------6-----6-----|
A|-----------------------------------------------|
E|-----------------------------------------------|

e|--------------------------------------|
B|---12-11-11-------11-------11---------|
G|---13-12----12-------12-------12------|
D|---14-13-------13-------13-------13---|
A|--------------------------------------|
E|--------------------------------------|

e|--------------------------------|
B|---9--8--8------8------8--------|
G|---10-9----9------9------9------|
D|---11-10-----10-----10-----10---|
A|--------------------------------|
E|--------------------------------|

e|-------------------------------|
B|---7-6-6-----6-----6-------8---|
G|---6-5---5-----5-----5---------|
D|---7-6-----6-----6-----6-------|
A|-------------------------------|
E|-------------------------------|


Verse:                                                 Outro:
e|------------------------------------|                e|----------------------------------15---|
B|-----8-6--------------11-------13---|                B|-----8-6--------------11-------13------|
G|---5-----6-6/8--10/12----12/14------| Repeat 3x then G|---5-----6-6/8--10/12----12/14---------|
D|------------------------------------|                D|---------------------------------------|
A|------------------------------------|                A|---------------------------------------|
E|------------------------------------|                E|---------------------------------------|




************************************

| /   slide up
| \   slide down
| h   hammer-on
| p   pull-off
| ~   vibrato
| +   harmonic
| x   Mute note
| b   Bend
| pb  Pre-bend
| br  Bend release
| pbr Pre-bend release
| brb Bend release bend

Almost there ...

Sign in to get your own page with links to favourite songs and more. You are just one click away...

Login with Facebook Login with Google