Log in

One click and you are in

Login with Facebook Login with Google

Why sign up and log in

Guitar Tabs Explorer
Homeshake bass tabs for I dont wanna

Bass tabs

Tuning: Standard (E A D G)

Difficulty: Novice


Intro:

G|----------------------------------------------|
D|--------------------8----8/12----10-8---------|
A|-8---6-8-9/10----10---10--------------10-8----|
E|----------------------------------------------|
Chorus:

G|---------------------------------------------------------|
D|-------------------------------8----8/12----10-8---------|   3x
A|---6(8/)10-8----6-8-9/10----10---10--------------10-8----|
E|-9-------------------------------------------------------|


Verse 1:

G|--------------------------------------------------|
D|--------7-----------5-----------------------3~----|
A|-6--5------5--4--3------3----2-1----3-6-5-3-------|
E|----------------------3----3----------------------|


Verse 2:

G|-------------------------------------------------|
D|--------7-----------5---------------------5~-----|
A|-6--5------5--4--3------3-3---2-1----3-5---------|
E|----------------------3-----3--------------------|

Chorus:

G|----------------------------------------------|
D|--------------------8----8/12----10-8---------|
A|-8---6-8-9/10----10---10--------------10-8----|
E|----------------------------------------------|


G|---------------------------------------------------------|
D|-------------------------------8----8/12----10-8---------|   3x
A|---6(8/)10-8----6-8-9/10----10---10--------------10-8----|
E|-9-------------------------------------------------------|


Verse 1:

G|---------------------------------------------------|
D|--------7-----------5------------------------3~----|
A|-6--5------5--4--3------3-3---2-1----3-6-5-3-------|
E|----------------------3-----3----------------------|


Verse 3:

G|-------------------------------------------------|
D|--------7----------------------------------------|
A|-6--5------5--4--3----3-5-7--2-1----3--6---10----|
E|--------------------3----------------------------|


Chorus:

G|----------------------------------------------|
D|--------------------8----8/12----10-8---------|
A|-8---6-8-9/10----10---10--------------10-8----|
E|----------------------------------------------|


Outro:

G|---------------------------------------------------------|
D|-------------------------------8----8/12----10-8---------|   3x (end with vibrato (8~)
A|---6(8/)10-8----6-8-9/10----10---10--------------10-8----|
E|-9-------------------------------------------------------|


************************************

| The "(8/)" are notes that doesn't play(I think) but you can. Ignore them if you want.
| /   Slide up


As a side note, check out this girl's video if you're having trouble with timing (I tried my best but you
never know) https://www.youtube.com/watch v=n88MwOY8UDE, her covers are pretty good.

Hope you have a wonderful day.

************************************

Almost there ...

Sign in to get your own page with links to favourite songs and more. You are just one click away...

Login with Facebook Login with Google