Search tabs and chords

Search for song, artist or band

Log in

One click and you are in

Login with Facebook Login with Google

Why sign up and log in

Guitar Tabs Explorer
Homeshake bass tabs for Home at last

Bass tabs

-------------------------------------------------------------------------------
                             Home At Last - Homeshake
-------------------------------------------------------------------------------

Tuning: STANDARD
Intro: (0:00-0:22)
G|-------------------------------------------------------------------|
D|-------10-10--------------7--10---7-10/14-12\------10h12-10h12-10--|
A|-8-------------10----10-10-------------------8---------------------|
E|-------------------------------------------------------------------|

G|-------------------------------------------------------------------|
D|-------10-10--------------7--10---7-10/14-12\------10h12-10h12-10--|
A|-8----8--------10----10-10-------------------8---------------------|
E|-------------------------------------------------------------------|

Verse 1: (0:22-0:44)
G|-------------------------------------------------------------------|
D|-------10-10--------------7--10---7-10/14-12\------10h12-10h12-10--|
A|-8-------------10----10-10-------------------8---------------------|
E|-------------------------------------------------------------------|

G|------------------------------------------------------10-------|
D|-------10-10--------------7--10---7-10/14-12\------10----10\9--|
A|-8----8--------10----10-10-------------------8-----------------|
E|---------------------------------------------------------------|

Pre-Chorus: (0:44-1:06)
G|-------9----------------------9-7--------------------|
D|------9---7-7---7-5---5-4---4/-----------------------|
A|-7--7------------------------------10-10---10-9---9--|
E|-----------------------------------------------------|

G|-------9----------------------9-7--------------------|
D|------9---7-7---7-5---5-4---4/-----------------------|
A|-7--7------------------------------10-10---10-10--9--|
E|-----------------------------------------------------|

Chorus: (1:07-1:29)
G|-------------------------------------------------------------------|
D|-------10-10--------------7--10---7-10/14-12\------10h12-10h12-10--|
A|-8-------------10----10-10-------------------8---------------------|
E|-------------------------------------------------------------------|

G|------------------------12-------------------------------------------|
D|-------10-10-------------------10---7-10/14-12\------10h12-10h12-10--|
A|-8----8--------10---8-10--12-------------------8---------------------|
E|---------------------------------------------------------------------|

Verse 2: (1:29-1:51)
G|-------------------------------------------------------------------|
D|-------10-10--------------7--10---7-10/14-12\------10h12-10h12-10--|
A|-8----8--------10----10-10-------------------8---------------------|
E|-------------------------------------------------------------------|

G|------------------------12------------------------------10-------|
D|-------10-10-------------------10---7-10/14-12\------10----10\9--|
A|-8----8--------10---8-10--12-------------------8-----------------|
E|-----------------------------------------------------------------|

Pre-Chorus: (1:52-2:13)
G|-------9----------------------9-7--------------------|
D|------9---7-7---7-5---5-4---4/-----------------------|
A|-7--7------------------------------10-10---10-9---9--|
E|-----------------------------------------------------|

G|-------9----------------------9-7-------------------|
D|------9---7-7---7-5---5-4---4/----------------------|
A|-7--7------------------------------10-10---------9--|
E|----------------------------------------------------|

Outro: (2:14-2:58)
G|--------------------------------------------------------|
D|--------------------------------------------------------|
A|-7-------------7---------------7--------------7---------|
E|--------5------------7-5\-----------7-5-----------7-5\--|

G|----------------------------------------------|
D|--------9------7-7/9-7------------7-9-9-8-7/--|
A|-7---------------------7/10--7----------------|
E|------7---7--5--------------------------------|

G|--------------------------------------------|
D|--------9------7-7/9-7----------------------|
A|-7---------------------7/10---7-------------|
E|------7---7--5---------------------7--6--5--|


************************************

| h   Hammer-on
| /   Slide up
| \   Slide down

Almost there ...

Sign in to get your own page with links to favourite songs and more. You are just one click away...

Login with Facebook Login with Google