Search tabs and chords

Search for song, artist or band

Log in

One click and you are in

Login with Facebook Login with Google

Why sign up and log in

Guitar Tabs Explorer
Homeshake guitar tabs for Hes heating up

Intro with lyrics

Tuning: Standard (E chord diagramEE A chord diagramAA D chord diagramDD G chord diagramGG B chord diagramBB E chord diagramEE)

Key: F#m chord diagramF#mF#m

Difficulty: Intermediate

Album: Midnight Snack (2015)
Tab by Jack Solomon

(/) Slide Up  (\) Slide Down  (h) Hammer On  (p) Pull Off  (b) Bend (r) Release (v) Vibrato

Intro:

E|--2h4p2h4p2--------5h7p5h7p5--------7h9p7h9p7-----------7h9p7h9p7-----------7--7h9p7h9p7----|
B|--2----------------5----------------7-------------------7-------------------7---------------|
G|--2----------------6----------------7-------------------7-------------------7---------------|
D|--------------------------------------------------------------------------------------------|
A|--------------------------------------------------------------------------------------------|
E|------------------------------------------------7-------------------------------------------| x2

Verse:

E|--2h4p2h4p2--------5h7p5h7p5--------7h9p7h9p7-----------7h9p7h9p7-----------7--7h9p7h9p7----|
B|--2----------------5----------------7-------------------7-------------------7---------------|
G|--2----------------6----------------7-------------------7-------------------7---------------|
D|--------------------------------------------------------------------------------------------|
A|--------------------------------------------------------------------------------------------|
E|------------------------------------------------7-------------------------------------------| x4


Chorus:

E|--0h2p0h2p0--------3h5p3h5p3--------6h7p6h7p6--------9h10p9h10p9--------10--------11|
B|--0----------------3----------------6----------------9------------------10--------10|
G|--0----------------4----------------6----------------9------------------11--------11|
D|------------------------------------------------------------------------------------|
A|------------------------------------------------------------------------------------|
E|------------------------------------------------------------------------------------| x4


Solo:

E|----------------------------------------------------|
B|--12b14-----12/14/17-----12/14\10-----17h19p17h19~--|
G|----------------------------------------------------|
D|----------------------------------------------------|
A|----------------------------------------------------|
E|----------------------------------------------------|

Repeat





Lyrics:
https://genius.com/Homeshake-hes-heating-up-lyrics


Verse 1:
She's asking me over, so I told her
I would
Last time it was easy, it was always
So good
But it's different now
Since he's been coming 'round
(Oh baby)
I'll find a way to drop it from downtown

Chorus:
Looks like I put up a brick again
I can feel it
(He's heating up!)
Got stole and then he jammed it in
I can see it
(He's heating up!)
One lonely shot no good for two
But I need it
(He's heating up!)
You wanna hold onto him too
(He's on fire!)

Solo:

Verse 2:
So I get by a bucket, 'til my luck hits
Goddamn
Is it real what I'm seein'? Could it be him?
My man
I rejected
He headfakes and I'm down
(Just maybe)
I'll find a way to put it up from downtown

Chorus:
Looks like I put up a brick again
I can see it
(He's heating up!)
Got stole and then he jammed it in
I can feel it
(He's heating up!)
One ugly shot no good for two
But I need it
(He's heating up!)
You wanna hold onto him too
(He's on fire!)

Almost there ...

Sign in to get your own page with links to favourite songs and more. You are just one click away...

Login with Facebook Login with Google