Search tabs and chords

Search for song, artist or band

Log in

One click and you are in

Login with Facebook Login with Google

Why sign up and log in

Guitar Tabs Explorer
Homeshake guitar tabs for Hello welcome

Guitar tabs

Tuning: Standard

e|---------------------------------------------------------|
B|--------10-10b12r10--10b12r10--8b10r8--8b10r8--8/10-10~--|
G|-7-9-12--------------------------------------------------|
D|---------------------------------------------------------|
A|---------------------------------------------------------|
E|---------------------------------------------------------|

e|----------------------------------------------------------|
B|--------10-10b12r10--10b12r10--8b10r8--8b10r8--8---8h10~--|
G|-7-9-12------------------------------------------9--------|
D|----------------------------------------------------------|
A|----------------------------------------------------------|
E|----------------------------------------------------------|

e|-----------------------------------------------------------|
B|--------10-10b12r10--10b12r10--8b10r8--8b10r8--8-10-8h10~--|
G|-7-9-12----------------------------------------------------|
D|-----------------------------------------------------------|
A|-----------------------------------------------------------|
E|-----------------------------------------------------------|

e|----------------------------------------------------------------------------------|
B|--------10-10b12r10--10b12r10--8b10r8--8b10r8--8---8h10~--------------------------|
G|-7-9-12------------------------------------------9---------------9-7h9p7----------|
D|-------------------------------------------------------------------------10\9/10--|
A|----------------------------------------------------------------------------------|
E|----------------------------------------------------------------------------------|

e|---------------10--12--15-14--17/19--17-15-15--------------------|
B|--------10/12---------------------------------15h17--------------|
G|-7-9-12---------------------------------------------14h16-12h14--|
D|-----------------------------------------------------------------|
A|-----------------------------------------------------------------|
E|-----------------------------------------------------------------|


************************************

| r  Release
| b  Bend
| /  Slide up
| ~  Vibrato
| h  Hammer-on
| p  Pull-off
| \  Slide down

Other versions of Hello Welcome

Hello welcomeChords

Almost there ...

Sign in to get your own page with links to favourite songs and more. You are just one click away...

Login with Facebook Login with Google