Search tabs and chords

Search for song, artist or band

Log in

One click and you are in

Login with Facebook Login with Google

Why sign up and log in

Guitar Tabs Explorer
Homeshake guitar chords for Hello welcome

Guitar chords

Main Riff:
A|--------------------------------------------------|
E|--------3--5--5b7r5--5b7r5--3b5r3--3b5r3--3/5--5--|
C| chord diagramC|C|--2--4--------------------------------------------|
G|--------------------------------------------------|

A|---------------------------------------------------|
E|--------3--5--5b7r5--5b7r5--3b5r3--3b5r3--3---3h5--|
C| chord diagramC|C|--2--4--------------------------------------4------|
G|---------------------------------------------------|

A|---------------------------------------------------|
E|--------3--5--5b7r5--5b7r5--3b5r3--3b5r3--3---3h5--|
C| chord diagramC|C|--2--4--------------------------------------4------|
G|---------------------------------------------------|

A|----------------------------------------------------------------|
E|--------3--5--5b7r5--5b7r5--3b5r3--3b5r3--3---3h5---------------|
C| chord diagramC|C|--2--4--------------------------------------4-----2h4p2-h1\0/1--|
G|----------------------------------------------------------------|

A|------------------5--7--10--9--12b13--12--10--10------------------------|
E|--------3--5b7-------------------------------------10h12----------------|
C| chord diagramC|C|--2--4------------------------------------------------------9h11--8h10--|
G|------------------------------------------------------------------------|



************************************

| r  Release
| b  Bend
| /  Slide up
| h  Hammer-on
| p  Pull-off
| \  Slide down

Other versions of Hello Welcome

Hello welcomeTabs

Almost there ...

Sign in to get your own page with links to favourite songs and more. You are just one click away...

Login with Facebook Login with Google