Search tabs and chords

Search for song, artist or band

Log in

One click and you are in

Login with Facebook Login with Google

Why sign up and log in

Guitar Tabs Explorer
Homeshake guitar tabs for Fresh air

Guitar tabs with lyrics

e|------------(0)------------|
B|-5---6---8---8-----3---5---|
G|-7---7---7---9-9---4---4---|
D|-8---6---7---8-----3-------|
A|-----7---8---10--------3---|
E|-8-----------------3-------|
e|--/5-3----------3------|--------------------|-------------------------------|
B|-------6-5----6---5-6--|--------------------|---5-3-------3-6-3---6/8-6/8---|
G|-----------------------|--2--(1)h2-5--2-5-5-|-(2)-------5-------------------|
D|-----------------------|--------------------|-------------------------------|
A|-----------------------|--------------------|-------------------------------|
E|-----------------------|--------------------|-------------------------------|

[second time through]
e|--/5-3----------3------|--------------------|-2h3-----------------------------|-------------|
B|-------6-5----6---5-6--|--------------------|----5b6-3-------3-6-3---6/8-6/8--|--8/10-8/10--|
G|-----------------------|--2--(1)h2-5--2-5-5-|--------------5------------------|-------------|
D|-----------------------|--------------------|---------------------------------|-------------|
A|-----------------------|--------------------|---------------------------------|-------------|
E|-----------------------|--------------------|---------------------------------|-------------|

[lyrics]
roll this, slip my shoes on, and step outside
pull my hands up into my sleeves
reach in back and close the door behind
lift it up and pull it with ease
tryna take a moment outside my screen
tryna keep down out of that cloud
i can hear the traffic blow on the breeze
i can't figure anything out
(pull out?)

ooh-ooh-ooh x6

i pinch it for later on
easy knowing when it's enough
i don't need anxiety, move along
this is gonna make it too much
tryna pull together to keep this up
tryna stack a couple more pills
i can hear the water pouring in my cup
i can do whatever i feel
(whatever)

***********************************

|(n)  Ghost note / Optional note
| h   Hammer-on
| b   Bend

***********************************

Almost there ...

Sign in to get your own page with links to favourite songs and more. You are just one click away...

Login with Facebook Login with Google