Log in

One click and you are in

Login with Facebook Login with Google

Why sign up and log in

Guitar Tabs Explorer
Homeshake bass tabs for Dynamic meditation pt 2

Dynamic Meditation Pt 2 bass tab by Homeshake

Homeshake bass tabs for Dynamic meditation pt 2

Bass tabs

Tuning: Standard (E A D G)

Difficulty: Novice


Intro/Verse:

G|-------------------------|
D|---------------------6-5-|   6x
A|-------------3--5--6-----|
E|-1--3--4--5--------------|
Verse variation:

G|---------------------5--------|
D|-----------------------8--6---|
A|-------------3--5--6--------8-|
E|-1--3--4--5-------------------|


Chorus:

G|-----5----------|
D|---5---8--6-----|
A|-8----------8-5-|
E|----------------|


Chorus variation:

G|---5--------|
D|-5---8--6---|
A|----------8-|
E|------------|

Chorus variation 2:

G|-----5------------5-|
D|---5---8--6---------|
A|-8----------8-------|
E|--------------8-----|


Verse:

G|-------------------------|
D|---------------------6-5-|   3x
A|-------------3--5--6-----|
E|-1--3--4--5--------------|


Verse variation:

G|---------------------5--------|
D|-----------------------8--6---|
A|-------------3--5--6--------8-|
E|-1--3--4--5-------------------|


Chorus:

G|-----5----------|
D|---5---8--6-----|
A|-8----------8-5-|
E|----------------|


Chorus variation:

G|---5--------|
D|-5---8--6---|
A|----------8-|
E|------------|


Chorus variation 2:

G|-----5------------5-|
D|---5---8--6---------|
A|-8----------8-------|
E|--------------8-----|


Outro:

G|-------------------------|
D|---------------------6-5-|   2x
A|-------------3--5--6-----|
E|-1--3--4--5--------------|


************************************

| Play this with the song from the "full album"; this tab is not for the separated version


Hope you have a wonderful day.

************************************

Almost there ...

Sign in to get your own page with links to favourite songs and more. You are just one click away...

Login with Facebook Login with Google