Search tabs and chords

Search for song, artist or band

Log in

One click and you are in

Login with Facebook Login with Google

Why sign up and log in

Guitar Tabs Explorer
Homeshake bass tabs for Doo dah

Bass tabs

DOO DAH - HOMESHAKE

Tabbed By : Noah Moody
e-mail: Noahmoody1228@gmail.com

Tuning:Standard

G|------------|
D|---9-7-9-7--|(X8)
A|-7----------|
E|------------|

G|--12-9-------9--7-7--|
D|------9----------7---|
A|-------7-------------|
E|---------------------|

G|------------|
D|---9-7-9-7--|(X6)
A|-7----------|
E|------------|

G|--12-9-------9--7-7--|
D|------9----------7---|
A|-------7-------------|
E|---------------------|

G|------------|
D|---9-7-9-7--|
A|-7----------|
E|------------|

G|-------------------|
D|---9-7-9-7----7-8--|
A|-7-----------------|
E|-------------------|

G|------7---7-9---9--------------------------------------------7--|
D|-9---9-----------9---9-7---7-----9---9------------9---9-8---8---|
A|----------------------------7---7-----9----9-7---7--------------|
E|----------------------------------------------------------------|

G|------------|
D|---9-7-9-7--|(X6)
A|-7----------|
E|------------|

G|--12-9-------9--7-7--|
D|------9----------7---|
A|-------7-------------|
E|---------------------|

G|------------|
D|---9-7-9-7--|(X2)
A|-7----------|
E|------------|

G|--12-9-------9--7-7--|
D|------9----------7---|
A|-------7-------------|
E|---------------------|

G|------------|
D|---9-7-9-7--|
A|-7----------|
E|------------|

G|-------------------|
D|---9-7-9-7----7-8--|
A|-7-----------------|
E|-------------------|

G|------7---7-9---9-------------------------------------------7---|
D|-9---9-----------9---9-7---7-----9---9-----------9---9-8---8----|
A|----------------------------7---7-----9---9-7---7---------------|
E|----------------------------------------------------------------|

G|-------7---7-9---9-------------------------------------------7--|
D|789---9-----------9---9-7---7-----9---9-----------9---9-8---8---|
A|-----------------------------7---7-----9---9-7---7--------------|
E|----------------------------------------------------------------|

G|------------|
D|---9-7-9-7--|(X2)
A|-7----------|
E|------------|

G|------------------|
D|---9-7-9-7--------|
A|-7------------7--9|

Almost there ...

Sign in to get your own page with links to favourite songs and more. You are just one click away...

Login with Facebook Login with Google