Log in

One click and you are in

Login with Facebook Login with Google

Why sign up and log in

Guitar Tabs Explorer
Holysexybastards guitar tabs for Sweet home

Guitar tabs

Difficulty: Novice

Holy Sexy Bastards
Submitted by hokey
Intro
|---------------------------------------------|
|---------------------------------------------|    X  6
|---------------------------------------------|
|-----0-0-0---4-4-4-------4-----4----4-----4--|
|-------------------------4-----4----4-----4--|
|-------------------------2--2--2--2-2-2-2-2--|


CORO
|---------------------------------------------|
|---------------------------------------------|    X  8
|---------------------------------------------|
|-----7--7--7---7--7--7--7-7------------------|
|-----7--7--7---7--7--7--7-7------------------|
|-----5--5--5---5--5--5--5-5------------------|


|---------------------------------------------|
|---------------------------------------------|    X  7
|---------------------------------------------|
|-----0-0-0---4-4-4-------4-----4----4-----4--|
|-------------------------4-----4----4-----4--|
|-------------------------2--2--2--2-2-2-2-2--|


CORO
|---------------------------------------------|
|---------------------------------------------|    X  8
|---------------------------------------------|
|-----7--7--7---7--7--7--7-7------------------|
|-----7--7--7---7--7--7--7-7------------------|
|-----5--5--5---5--5--5--5-5------------------|

PUENTE

|---------------------------------------------|
|---------------------------------------------|    X  6
|---------------------------------------------|
|-----11--11--9-9--7-7--4--4------------------|
|-----11--11--9-9--7-7--4--4------------------|
|-----9---9---7-7--5-5--2--2------------------|

2da guitarra En el puente

|---------------------------------------------|
|-----9-10-9---7----9-10-9--------------------|
|----------------------------6-6--------------|
|---------------------------------------------|
|---------------------------------------------|
|---------------------------------------------|

----------------------------9-9---------------|
|-----9-10-9---7----9-10-9--------------------|
|---------------------------------------------|
|---------------------------------------------|
|---------------------------------------------|
|---------------------------------------------|


CORO
|---------------------------------------------|
|---------------------------------------------|    X  8
|---------------------------------------------|
|-----7--7--7---7--7--7--7-7------------------|
|-----7--7--7---7--7--7--7-7------------------|
|-----5--5--5---5--5--5--5-5------------------|

|---------------------------------------------|
|---------------------------------------------|
|---------------------------------------------|
|-----9---------------------------------------|
|-----9---------------------------------------|
|-----7---------------------------------------|


THE END!

Almost there ...

Sign in to get your own page with links to favourite songs and more. You are just one click away...

Login with Facebook Login with Google