Log in

One click and you are in

Login with Facebook Login with Google

Why sign up and log in

Guitar Tabs Explorer
Buddy Holly tabs for Thatll be the day

Guitar tabs

That'll Be the Day
Norman Petty, Buddy Holly, Jerry Alison


INTRO:
                                   A chord diagramE5E5   A chord diagramE5E5 A chord diagramE5E5
E---------------------------------7-----7--7-
B---10------10------10------10----7-----7--7-
G-9----9--8----8--7----7--6----6--9-----9--9-
D---------------------------------9-----9--9-
A---------------------------------7-----7--7-
E---------------------------------0-----0--0-

CHORUS:
A chord diagramD5D5
That'll be the day, when you say ...
A chord diagramA5A5
That'll be the day, when you make me ...
A chord diagramD5D5
you say you're gonna ...
A chord diagramA5A5     mute                A chord diagramG#5G#5    A chord diagramA5A5
'cause That'll be the day, when I die


VERSE:
A chord diagramD5D5                                   A chord diagramA5A5
Well, you give me all your lovin' ....
A chord diagramD5D5                                A chord diagramA5A5
All your hugs and kisses ...,
A chord diagramD5D5                        A chord diagramA5A5
Well, you know you love me ...
A chord diagramB5B5                   A chord diagramE MajorE
That some day, well, I'll ...


CHORUS


SOLO:

E-8----------------------8---------------------
B---10-8-------------------10-8----------------
G---------8--9-9-9-9-7-5--------8--9-9-9-9-7-5-
D----------------------------------------------
A----------------------------------------------
E----------------------------------------------


E-8-------------------------------------------------------------------
B---10-8--------------------------------------------------------------
G--------9-9s12-12-12-11/12-12-12-11/12-12-12-11/12-12-12-11/12-12-12-
D---------------------------------------------------------------------
A---------------------------------------------------------------------
E---------------------------------------------------------------------


E----------------------------------------------------------------
B----------------------------------------------------------------
G----------------------------------------------------------------
D-7-7-9-9-7-7-9-9-7-7-9-9-7-7-9-9--------------------------------
A---------------------------------7-7-9-9-7-7-9-9-7-7-9-9-7-7-5-7
E----------------------------------------------------------------

                                                    A chord diagramE5E5  A chord diagramE5E5 A chord diagramE5E5
E----------8----------------------------------------7---7-7-
B-12-12-12---10---7-10---10-----10-----10-----10----7---7-7-
G---------------9------9----9-8----8-7----7-6----6--9---9-9-
D---------------------------------------------------9---9-9-
A---------------------------------------------------7---7-7-
E---------------------------------------------------0---0-0-


CHORUS


VERSE


CHORUS X2


OUTRO:
           A chord diagramA5A5
E---------5-
B-8-7-6-5-5-
G---------6-
D---------7-
A---------7-
E---------5-


it still need some work here and there
but it's close to the real thing

Other versions of Thatll Be The Day

Thatll be the dayChords
Thatll be the day (Ver. 2)Chords

Almost there ...

Sign in to get your own page with links to favourite songs and more. You are just one click away...

Login with Facebook Login with Google