Log in

One click and you are in

Login with Facebook Login with Google

Why sign up and log in

Guitar Tabs Explorer
The Hollies bass tabs for Were through

Bass tabs

G----------------------9-7-9--9-7-9-------------------------------------------|
D------7-5-7--7-5-7---7------7------------------------------------------------|
A-----5------5----------------------------------------------------------------|
E-----------------------------------------(4x)--------------------------------|
G-----------------------------------------------------------------------------|
D------7-5-7--7-5-7-----------------------------------------------------------|
A-----5------5----------------------------------------------------------------|
E----------------------------------------(6x)---------------------------------|

G----------------------9-7-9--9-7-9----7-5-7--7-5-7----10-8-10--10-8-10-------|
D------7-5-7--7-5-7---7------7--------5------5--------8--------8--------------|
A-----5------5----------------------------------------------------------------|
E------------------------------------------------------------------------(1x)-|


G----------------------9-7-9--9-7-9---------------------------------------------|
D------7-5-7--7-5-7---7------7------86-6h8-6h8-6-6---108--8h10-8h10-8--8--------|
A-----5------5------------------------8---------8-------10-----------10---------|
E--------------------------------------------------------------------------(2x)-|


solo gitaar
G----------------------9-7-9--9-7-9-------------------------------------------|
D------7-5-7--7-5-7---7------7------------------------------------------------|
A-----5------5----------------------------------------------------------------|
E-----------------------------------------(3x)--------------------------------|


G----------------------9-7-9--9-7-9---------------------------------------------|
D------7-5-7--7-5-7---7------7------86-6h8-6h8-6-6---108--8h10-8h10-8--8--------|
A-----5------5------------------------8---------8-------10-----------10---------|
E--------------------------------------------------------------------------(2x)-|


G----------------------9-7-9--9-7-9-------------------------------------------|
D------7-5-7--7-5-7---7------7------------------------------------------------|
A-----5------5----------------------------------------------------------------|
E-----------------------------------------(2x)--------------------------------|


G-----------------------------------------------------------------------------|
D------7-5-7--7-5-7-----------------------------------------------------------|
A-----5------5----------------------------------------------------------------|
E----------------------------------------(6x)---------------------------------|


G----------------------9-7-9--9-7-9----7-5-7--7-5-7----10-8-10--10-8-10-------|
D------7-5-7--7-5-7---7------7--------5------5--------8--------8--------------|
A-----5------5----------------------------------------------------------------|
E------------------------------------------------------------------------(1x)-|


G----------------------9-7-9--9-7-9-------------------------------------------|
D------7-5-7--7-5-7---7------7-----------------------5 end -----------------|
A-----5------5----------------------------------------------------------------|
E-----------------------------------------(2x)--------------------------------|

Almost there ...

Sign in to get your own page with links to favourite songs and more. You are just one click away...

Login with Facebook Login with Google