Log in

One click and you are in

Login with Facebook Login with Google

Why sign up and log in

Guitar Tabs Explorer
The Hollies bass tabs for The air that i breathe

The Air That I Breathe bass tab by The Hollies

The Hollies bass tabs for The air that i breathe

Bass tabs

SONG: The Air That I Breathe
ARTIST: The Hollies
ALBUM: Hollies

TUNING: Standard (E A D G)
TIME SIGNATURE: 4/4
G|------|--------|--------|--------|--------|--------|--------|--------|---------------------------|
D|------|--------|--------|--------|--------|--------|--------|--------|---------------------------|
A|------|--------|--------|--------|--------|--------|--------|--------|-3----3-------3---3--------|
E|------|--------|--------|--------|--------|--------|--------|--------|-----------3-----------3---|


G|-----------------------------|---------------------------|-----------------------------|
D|-----------------------------|---------------------------|-----------------------------|
A|-3----3-------3---3----3--5--|-7----7-------7---7--------|-7----7-------7---7-------7--|
E|-----------3-----------------|-----------7-----------7---|-----------7-----------7-----|


G|---------------------------|------------------------|---------------------------|
D|---------------------------|------3----3------------|---------------------------|
A|-8----8-------8---8--------|-------------------5----|-3----3-------3---3--------|
E|-----------8-----------8---|-1------------4---------|-----------3-----------3---|


G|---------------------------|---------------------------|---------------------------|
D|---------------------------|---------------------------|---------------------------|
A|-3----3-------3---3--------|-3----3-------3---3--------|-3----3-------3---3----5---|
E|-----------3-----------3---|-----------3-----------3---|-----------3---------------|


G|---------------------------|-----------------------------|---------------------------|
D|---------------------------|-----------------------------|---------------------------|
A|-7----7-------7---7--------|------7-------7---7-------7--|-8----8-------8---8--------|
E|-----------7-----------7---|-0---------7-----------7-----|-----------8-----------8---|

G|------------------------|-----------------------------|---------------------------|
D|------3----3------------|-----------------------------|---------------------------|
A|------------------------|--------------3---3----3--5--|-7----7-------7---7--------|
E|-1------------4----6----|-8----8----3-----------------|-----------7-----------7---|


G|-----------------------------|---------------------------|-----------------------------|
D|-----------------------------|---------------------------|-----------------------------|
A|------7-------7---7-------7--|-8----8-------8---8--------|-3----3-------3---3----3--5--|
E|-0---------7-----------7-----|-----------8-----------1---|-----------3-----------------|


G|---------------------------|-----------------------------|---------------------------|
D|---------------------------|-----------------------------|---------------------------|
A|-7----7-------7---7--------|------7-------7---7-------7--|-8----8-------8---8--------|
E|-----------7-----------7---|-0---------7-----------7-----|-----------8-----------1---|


G|---------------------------|---------------------------|-----------------------------|
D|---------------------------|---------------------------|-----------------------------|
A|-3----3-------3---3--------|-3----3-------3---3--------|-3----3-------3---3----3--5--|
E|-----------3-----------3---|-----------3-----------3---|-----------3-----------------|


G|---------------------------|-----------------------------|---------------------------|
D|---------------------------|-----------------------------|---------------------------|
A|-7----7-------7---7--------|-7----7-------7---7-------7--|-8----8-------8---8--------|
E|-----------7-----------7---|-----------7-----------7-----|-----------8-----------8---|


G|---------------------|---------------------------|---------------------------|---------------------------|
D|------3--------------|---------------------------|---------------------------|---------------------------|
A|----------------5----|-3----3-------3---3--------|-3----3-------3---3----3---|-3----3-------3---3--------|
E|-1---------4---------|-----------3-----------3---|-----------3---------------|-----------3-----------3---|


G|---------------------------|---------------------------|---------------------------|
D|---------------------------|--------------5---5--------|---------------------------|
A|-3----3-------3---3----3---|-----------5-----------5---|-3----3-------3---3--------|
E|-----------3---------------|-3----3--------------------|-----------3-----------3---|


G|---------------------------|---------------------------|---------------------------|
D|---------------------------|--------------5---5--------|---------------------------|
A|-3----3-------3---3----3---|------5----5-----------5---|-3----3-------3---3--------|
E|-----------3---------------|-3-------------------------|-----------3-----------3---|


G|---------------------------|---------------------------|---------------------------|
D|---------------------------|--------------5---5--------|--------------5---5--------|
A|-3----3-------3---3----3---|-----------5-----------5---|-----------5-----------5---|
E|-----------3---------------|-3----3--------------------|-3----3--------------------|


G|---------------------------|---------------------------|---------------------------|
D|-3----3-------3---3--------|---------------------------|--------------5---5--------|
A|-----------3---------------|-3----3-------3---3----3---|-----------5-----------5---|
E|-----------------------1---|-----------3---------------|-3----3--------------------|


G|---------------------------|---------------------------|---------------------------|
D|--------------5---5--------|-3----3-------3---3--------|-----------------------5---|
A|-----------5-----------5---|-----------3---------------|-3----3-------3---3--------|
E|-3----3--------------------|-----------------------1---|-----------3---------------|


G|---------------------------|---------------------------|-----------------------------|
D|--------------5---5--------|---------------------------|-----------------------------|
A|-----------5-----------5---|-3----3-------3---3--------|-3----3-------3---3----3--5--|
E|-3----3--------------------|-----------3-----------3---|-----------3-----------------|


G|---------------------------|-----------------------------|---------------------------|
D|---------------------------|-----------------------------|---------------------------|
A|-7----7-------7---7--------|-7----7-------7---7-------7--|-8----8-------8---8--------|
E|-----------7-----------7---|-----------7-----------7-----|-----------8-----------8---|


G|---------------------------|---------------------------|---------------------------|
D|--------------3---3----3---|---------------------------|-----------------------5---|
A|------3----3---------------|-3----3-------3---3--------|-3----3-------3---3--------|
E|-1-------------------------|-----------3-----------3---|-----------3---------------|


G|---------------------------|---------------------------|---------------------------|
D|---------------------------|---------------------------|--------------5---5----5---|
A|-3----3-------3---3--------|-3----3-------3---3----3---|-----------5---------------|
E|-----------3-----------3---|-----------3---------------|-3----3--------------------|


G|---------------------------|---------------------------|---------------------------|
D|---------------------------|---------------------------|-5----5-------5--------5---|
A|-3----3-------3---3--------|-3----3-------3---3--------|-----------5---------------|
E|-----------3-----------3---|-----------3-----------3---|------------------3--------|


G|---------------------------|---------------------------|---------------------------|
D|---------------------------|---------------------------|-5----5-------5---5--------|
A|-3----3-------3---3--------|-3----3-------3---3--------|-----------5-----------5---|
E|-----------3-----------3---|-----------3-----------3---|---------------------------|


G|---------------------------|---------------------------|---------------------------|
D|--------------5---5--------|-3----3-------3---3----3---|---------------------------|
A|-----------5-----------5---|-----------3---------------|-3----3-------3---3----3---|
E|-3----3--------------------|---------------------------|-----------3---------------|


G|---------------------------|---------------------------|---------------------------|
D|--------------5---5----5---|---------------------------|---------------------------|
A|-----------5---------------|-3----3-------3---3--------|-3----3-------3---3----3---|
E|-3----3--------------------|-----------3-----------3---|-----------3---------------|


G|---------------------------|---------------------------|---------------------------|
D|--------------5---5----5---|---------------------------|---------------------------|
A|-----------5---------------|-3----3-------3---3--------|-3----3-------3---3----3---|
E|-3----3--------------------|-----------3-----------3---|-----------3---------------|


G|---------------------------|---------------------------|---------------------------|
D|--------------5---5--------|---------------------------|---------------------------|
A|-----------5-----------5---|-3----3-------3---3--------|-3----3-------3---3----3---|
E|-3----3--------------------|-----------3-----------3---|-----------3---------------|


G|---------------------------|---------------------------|---------------------------|
D|--------------5---5--------|---------------------------|---------------------------|
A|-----------5-----------5---|-3----3-------3---3--------|-3----3-------3---3----3---|
E|-3----3--------------------|-----------3-----------3---|-----------3---------------|


G|---------------------------|--------|--------|
D|--------------5---5--------|--------|--------|
A|-----------5-----------5---|-3------|--------|
E|-3----3--------------------|--------|--------|

Almost there ...

Sign in to get your own page with links to favourite songs and more. You are just one click away...

Login with Facebook Login with Google