Log in

One click and you are in

Login with Facebook Login with Google

Why sign up and log in

Guitar Tabs Explorer
The Hollies bass tabs for The air that i breath

Bass tabs

h/hollies/The_air_that_i_breath.btab

Basstab by Jan Bjorklund, Finland <jani_bjorklund@yahoo.se>
You are welcome to request for basstabs!
Bienvenidos a pedirme transcripciones para el bajo!
Fingering and positions as suggested by TablEdit.

TablEdited by Jan Bjorklund

Tuning : E A D G 	Time Signature: 4/4

 |    |    |    |    |    |    |    |
|--------------------------------|--------------------------------|
|--------------------------------|------------------------------2-|
|3-----3-------3---3-------------|3-------3-----3-----3-------3---|
|------------3---------------3---|------------3-------------------|

 |    |    |    |    |    |    |    |
|--------------------------------|--------------------------------|
|--------2-------2---2-----------|2-------2-------2---2-------2-3-|
|------------2---------------2---|--------------2-----------2-----|
|--------------------------------|--------------------------------|

 |    |    |    |    |    |    |    |
|--------------------------------|--------------------------------|
|--------3-----3---3-------------|--------3-----3-------0---------|
|------------3-------------3-----|--------------------------------|
|------------------------------1-|----------------4---------------|

 |    |    |    |    |    |    |    |
|--------------------------------|--------------------------------|
|--------------------------------|--------------------------------|
|3-------3-------3---3---------3-|------3-------3-----3---------3-|
|------------3-------------3-----|------------3---------------3---|

 |    |    |    |    |    |    |    |
|--------------------------------|--------------------------------|
|--------------------------------|--------------------------0---2-|
|--------3-----3-----3---------3-|--------3-------3---3-----------|
|------------3-------------3-----|--------------3-----------------|

 |    |    |    |    |    |    |    |
|--------------------------------|--------------------------------|
|--------2-------2---2-----------|------2-------2---2---------2-3-|
|--------------2-------------2---|------------2-------------2-----|
|--------------------------------|0-------------------------------|

 |    |    |    |    |    |    |    |
|--------------------------------|--------------------------------|
|--------3-----3---3-------------|------3-------3-----------------|
|------------3-------------3-----|------------------------1-----3-|
|------------------------------1-|----------------4---------------|

 |    |    |    |    |    |    |    |
|--------------------------------|--------------------------------|
|------------------------------0-|2-----2-------2---2-------------|
|------3---------3---3-------3---|------------2-------------2-----|
|------------3-------------------|------------------------------0-|

 |    |    |    |    |    |    |    |
|--------------------------------|--------------------------------|
|--------2-----2-----2-------2-3-|--------3-------3---3-----------|
|--------------2-----------2-----|------------3-----------------3-|
|--------------------------------|--------------------------1-----|

 |    |    |    |    |    |    |    |
|--------------------------------|--------------------------------|
|----------------------------0---|2-------2-----2---2-------------|
|--------3-----3---3-------3-----|------------2-------------2-----|
|------------3-------------------|------------------------------0-|

 |    |    |    |    |    |    |    |
|--------------------------------|--------------------------------|
|--------2-----2---2---------2---|3-----3-------3---3-------------|
|------------2-------------2-----|------------3-----------------3-|
|--------------------------------|--------------------------1-----|

 |    |    |    |    |    |    |    |
|--------------------------------|--------------------------------|
|--------------------------------|--------------------------------|
|--------3-------3---3---------3-|--------3-----3---3-----------3-|
|--------------3-----------3-----|------------3-------------3-----|

 |    |    |    |    |    |    |    |
|--------------------------------|--------------------------------|
|----------------------------0---|2-----2-------2---2-----------2-|
|------3-------3-----3-----3-----|------------2-------------2-----|
|------------3-------------------|--------------------------------|

 |    |    |    |    |    |    |    |
|--------------------------------|--------------------------------|
|--------2-------2---2---------2-|------3-------3---3-------------|
|--------------2-----------2-----|------------3-------------3-----|
|--------------------------------|------------------------------1-|

 |    |    |    |    |    |    |    |
|--------------------------------|--------------------------------|
|------3---------------0---------|--------------------------------|
|--------------------------------|3-----3-------3---3-----------3-|
|--------------4-----------------|------------3-------------3-----|

 |    |    |    |    |    |    |    |
|--------------------------------|--------------------------------|
|--------------------------------|--------------------------------|
|------3-------3---3-------3-----|3-------3-------3---3---------3-|
|------------3-------------------|--------------3-----------3-----|

 |    |    |    |    |    |    |    |
|--------------------------------|----------------0-0-------------|
|--------------------------------|--------------0-----------0-----|
|------3-------3---3-------3-----|------------------------------3-|
|------------3-----------------3-|------3-------------------------|

 |    |    |    |    |    |    |    |
|--------------------------------|--------------------------------|
|--------------------------------|--------------------------------|
|--------3-------3-3-----------3-|------3---------3---3-----3-----|
|------------3-------------3-----|--------------3---------------3-|

 |    |    |    |    |    |    |    |
|----------------0-0-------------|--------------------------------|
|------0-------0-------------0---|--------------------------------|
|--------------------------------|3-------3-------3---3---------3-|
|--------------------------------|--------------3-----------3-----|

 |    |    |    |    |    |    |    |
|--------------------------------|--------------0-----0-----------|
|--------------------------------|--------------0-----------0-----|
|------3-------3---3-------3-----|--------------------------------|
|--------------3---------------3-|--------3---------------------3-|

 |    |    |    |    |    |    |    |
|--------------0---0-------------|--------------------------------|
|------------0-------------0---3-|--------3-----3---3-------------|
|--------------------------------|------------3-----------------3-|
|------3-------------------------|--------------------------1-----|

 |    |    |    |    |    |    |    |
|--------------------------------|--------------0---0-------------|
|--------------------------------|------------0---------------0---|
|--------3-------3---3-------3---|--------------------------------|
|--------------3---------------3-|------3-----------------------3-|

 |    |    |    |    |    |    |    |
|--------------0---0-------------|--------------------------------|
|------------0-------------0---3-|--------3-----3-----3-----------|
|--------------------------------|------------3-----------------3-|
|------3-------------------------|--------------------------1-----|

 |    |    |    |    |    |    |    |
|----------------------------0---|--------------0---0-------------|
|--------------------------------|--------------0-----------0-----|
|--------3-----3---3-------------|--------------------------------|
|------------3-------------------|3-------3-----------------------|

 |    |    |    |    |    |    |    |
|--------------------------------|--------------------------------|
|--------------------------------|----------------------------0---|
|3-------3-----3---3-----------3-|--------3-------3---3-----3-----|
|------------3-------------3-----|------------3-------------------|

 |    |    |    |    |    |    |    |
|--------------------------------|--------------------------------|
|2-------2-----2---2-----------2-|--------2-----2-----2-------2-3-|
|------------2-------------2-----|------------2---------------2---|
|--------------------------------|--------------------------------|

 |    |    |    |    |    |    |    |
|--------------------------------|--------------------------------|
|--------3-----3-----3-----------|--------------3---3-------3-----|
|------------3-------------3-----|------3-----3-----------------3-|
|------------------------------1-|--------------------------------|

 |    |    |    |    |    |    |    |
|--------------------------------|--------------------------0-----|
|--------------------------------|--------------------------------|
|------3-------3---3-------------|3-------3-----3-----3-----------|
|------------3-------------3-----|------------3-------------------|

 |    |    |    |    |    |    |    |
|--------------------------------|--------------------------------|
|--------------------------------|--------------------------------|
|3-------3-----3---3-----------3-|--------3-------3-3-------3-----|
|------------3-------------3-----|------------3-----------------3-|

 |    |    |    |    |    |    |    |
|--------------0-----0-----0-----|--------------------------------|
|------------0-------------------|--------------------------------|
|------------------------------3-|------3-------3---3-----------3-|
|--------3-----------------------|------------3-------------3-----|

 |    |    |    |    |    |    |    |
|--------------------------------|0-------0-----0-----------0-----|
|--------------------------------|------------0-------------------|
|------3-------3---3-------------|--------------------------------|
|------------3-------------3-----|--------------------3-----------|

 |    |    |    |    |    |    |    |
|--------------------------------|--------------------------------|
|--------------------------------|--------------------------------|
|3-----3-------3-----3---------3-|------3-------3---3-------------|
|------------3-------------3-----|------------3-------------3-----|

 |    |    |    |    |    |    |    |
|0-----0-------0---0-------------|----------------0---0-----------|
|------------0---------------0---|--------------0-----------0---3-|
|--------------------------------|--------------------------------|
|--------------------------------|3-------3-----------------------|

 |    |    |    |    |    |    |    |
|--------------------------------|--------------------------------|
|------3---------3---3-------3---|--------------------------------|
|--------------3-----------------|3-------3-----3---3-------3-----|
|--------------------------------|------------3-----------------3-|

 |    |    |    |    |    |    |    |
|--------------0---0-------0-----|--------------------------------|
|------------0-------------------|--------------------------------|
|--------------------------------|3-----3---------3-3-------------|
|------3-------------------------|------------3-------------3-----|

 |    |    |    |    |    |    |    |
|--------------------------------|--------------0---0-------0-----|
|--------------------------------|------------0-------------------|
|3-----3-------3---3---------3---|------------------------------3-|
|------------3-------------------|3-------3-----------------------|

 |    |    |    |    |    |    |    |
|--------------------------------|--------------------------------|
|--------------------------------|--------------------------------|
|------3-------3---3-----------3-|--------3-------3---3-----3-----|
|--------------3-----------3-----|--------------3---------------3-|

 |    |    |    |    |    |    |    |
|----------------0-0-------------|--------------------------------|
|--------------0-----------0-----|--------------------------------|
|------------------------------3-|------3-------3---3-----------3-|
|------3-------------------------|------------3-------------3-----|

 |    |    |    |    |    |    |    |
|--------------------------------|--------------0---0-------------|
|--------------------------------|------------0---------------0---|
|--------3-------3-3-------3-----|--------------------------------|
|------------3-----------------3-|------3-------------------------|

 |    |    |    |    |    |    |    |
|--------------------------------|--------------------------------|
|--------------------------------|--------------------------------|
|3-----3-------3---3-----------3-|--------3-----3---3-------3-----|
|------------3-------------3-----|------------3-------------------|

 |    |    |    |    |    |    |    |
|--------------0---0-------------|--------------------------------|
|------------0-------------0-----|--------------------------------|
|------------------------------3-|------3-------3---3-------------|
|3-----3-------------------------|------------3---------------3---|

 |    |    |    |    |    |    |    |
|--------------------------------|--------------------------------|
|--------------------------------|--------------------------------|
|3-------------------------------|--------------------------------|
|--------------------------------|--------------------------------|

Other versions of The Air That I Breath

The air that I breatheBass tabs

Almost there ...

Sign in to get your own page with links to favourite songs and more. You are just one click away...

Login with Facebook Login with Google