On A Carousel by The Hollies

On A Carousel bass tab by The Hollies

Bass tabs

h/hollies/On_a_carousel.btab

Basstab by Jan Bjorklund, Finland
You are welcome to request for basstabs!
Bienvenidos a pedirme transcripciones para el bajo!
Fingering and positions as suggested by TablEdit.

TablEdited by Jan Bjorklund
Tuning : E A D G 	Time Signature: 4/4

 |    |    |    |    |    |    |    |
|--------------------------------|------------0---0---0---0---0---|
|--------------------------------|--------------------------------|
|--------------------------------|--------------------------------|
|3-------3-------3---3---3---3---|3---3---3-----------------------|

 |    |    |    |    |    |    |    |
|--------------------------------|--------------------------------|
|--------------------------------|--------------------------------|
|3-------------------------------|--------------------------------|
|----0-----------1-------2-------|3---3---3---3---3---3---3---3---|

 |    |    |    |    |    |    |    |
|--------------------------------|--------------------------------|
|--------------------------------|--------------------------------|
|3-------------------------------|--------------------------------|
|----0-----------1-------2-------|3---3---3---3---3---3---3---3---|

 |    |    |    |    |    |    |    |
|------------------------0---0---|------------------------0---0---|
|----------------3---3-----------|----------------3---3-----------|
|3-------3-----3-----------------|3-------3-----3-----------------|
|--------------------------------|--------------------------------|

 |    |    |    |    |    |    |    |
|------------------------0---0---|------------------------0---0---|
|----------------3---3-----------|----------------3---3-----------|
|3-------3-----3-----------------|3-------3-----3-----------------|
|--------------------------------|--------------------------------|

 |    |    |    |    |    |    |    |
|------------------------0---0---|------------------------0---0---|
|----------------3---3-----------|----------------3---3-----------|
|3-------3-----3-----------------|3-------3-----3-----------------|
|--------------------------------|--------------------------------|

 |    |    |    |    |    |    |    |
|------------------------0---0---|--------------------------------|
|----------------3---3-----------|--------------------------------|
|3-------3-----3-----------------|3-------3-------3---2---3---4---|
|--------------------------------|--------------------------------|

 |    |    |    |    |    |    |    |
|----------------------------2---|----------------------------2---|
|0-------0-------0-------0-------|0-------0-------0-------0-------|
|--------------------------------|--------------------------------|
|--------------------------------|--------------------------------|

 |    |    |    |    |    |    |    |
|----------------------------2---|0---0---0---0---0---0---0---0---|
|0-------0-------0-------0-------|--------------------------------|
|--------------------------------|--------------------------------|
|--------------------------------|--------------------------------|

 |    |    |    |    |    |    |    |
|0---0---0---0---0---0---0---0---|--------------------------------|
|--------------------------------|--------------------------------|
|--------------------------------|3-------------------------------|
|--------------------------------|----0-----------1-------2-------|

 |    |    |    |    |    |    |    |
|--------------------------------|--------------------------------|
|--------------------------------|--------------------------------|
|--------------------------------|3-------------------------------|
|3---3---3---3---3---3---3---3---|----0-----------1-------2-------|

 |    |    |    |    |    |    |    |
|----------------0---------------|--------------------------------|
|------------------------4-------|3-----------------------0---2---|
|--------------------------------|------------3-------3-----------|
|3---3---3---3-------------------|--------------------------------|

 |    |    |    |    |    |    |    |
|--------------------------------|------------------------0---0---|
|3-------3---------------0-------|----------------3---3-----------|
|----------------3---3-------4---|3-------3-----3-----------------|
|--------------------------------|--------------------------------|

 |    |    |    |    |    |    |    |
|----------------------------0---|--------------------------------|
|--------------------------------|3-----------------------3-------|
|3-------3-------3-------3-------|------------3-------------------|
|--------------------------------|--------------------------------|

 |    |    |    |    |    |    |    |
|--------------------------------|--------------------------------|
|----2-----------0---------------|--------------------------------|
|------------------------3-------|1---1---1---1---1---1---1---1---|
|--------------------------------|--------------------------------|

 |    |    |    |    |    |    |    |
|--------------------------------|--------------------------------|
|--------------------------------|--------------------------------|
|--------------------------------|3-------------------------------|
|3---3---3---3---3---3---3---3---|--------------------------------|

 |    |    |    |    |    |    |    |
|--------------------10----10----|------------------------0---0---|
|--------------------------------|----------------3---3-----------|
|--------------------------------|3-------3-----3-----------------|
|--------------------------------|--------------------------------|

 |    |    |    |    |    |    |    |
|------------------------0---0---|------------------------0---0---|
|----------------3---3-----------|----------------3---3-----------|
|3-------3-----3-----------------|3-------3-----3-----------------|
|--------------------------------|--------------------------------|

 |    |    |    |    |    |    |    |
|------------------------0---0---|------------------------0---0---|
|----------------3---3-----------|----------------3---3-----------|
|3-------3-----3-----------------|3-------3-----3-----------------|
|--------------------------------|--------------------------------|

 |    |    |    |    |    |    |    |
|------------------------0---0---|------------------------0---0---|
|----------------3---3-----------|----------------3---3-----------|
|3-------3-----3-----------------|3-------3-----3-----------------|
|--------------------------------|--------------------------------|

 |    |    |    |    |    |    |    |
|------------------------0---0---|------------------------0---0---|
|----------------3---3-----------|----------------3---3-----------|
|3-------3-----3-----------------|3-------3-----3-----------------|
|--------------------------------|--------------------------------|

 |    |    |    |    |    |    |    |
|--------------------------------|----------------------------2---|
|--------------------------------|0-------0-------0-------0-------|
|3-------3-------3---2---3---4---|--------------------------------|
|--------------------------------|--------------------------------|

 |    |    |    |    |    |    |    |
|----------------------------2---|----------------------------2---|
|0-------0-------0-------0-------|0-------0-------0-------0-------|
|--------------------------------|--------------------------------|
|--------------------------------|--------------------------------|

 |    |    |    |    |    |    |    |
|0---0---0---0---0---0---0---0---|0---0---0---0---0---0---0---0---|
|--------------------------------|--------------------------------|
|--------------------------------|--------------------------------|
|--------------------------------|--------------------------------|

 |    |    |    |    |    |    |    |
|--------------------------------|--------------------------------|
|--------------------------------|--------------------------------|
|3-------------------------------|--------------------------------|
|----0-----------1-------2-------|3---3---3---3---3---3---3---3---|

 |    |    |    |    |    |    |    |
|--------------------------------|----------------0---------------|
|--------------------------------|------------------------4-------|
|3-------------------------------|--------------------------------|
|----0-----------1-------2-------|3---3---3---3-------------------|

 |    |    |    |    |    |    |    |
|--------------------------------|--------------------------------|
|3-----------------------0---2---|3-------3---------------0-------|
|------------3-------3-----------|----------------3---3-------4---|
|--------------------------------|--------------------------------|

 |    |    |    |    |    |    |    |
|------------------------0---0---|----------------------------0---|
|----------------3---3-----------|--------------------------------|
|3-------3-----3-----------------|3-------3-------3-------3-------|
|--------------------------------|--------------------------------|

 |    |    |    |    |    |    |    |
|--------------------------------|--------------------------------|
|3-----------------------3-------|----2-----------0---------------|
|------------3-------------------|------------------------3-------|
|--------------------------------|--------------------------------|

 |    |    |    |    |    |    |    |
|--------------------------------|--------------------------------|
|--------------------------------|--------------------------------|
|1---1---1---1---1---1---1---1---|--------------------------------|
|--------------------------------|3---3---3---3---3---3---3---3---|

 |    |    |    |    |    |    |    |
|------------------------0---0---|------------------------0---0---|
|----------------3---3-----------|----------------3---3-----------|
|3-------3-----3-----------------|3-------3-----3-----------------|
|--------------------------------|--------------------------------|

 |    |    |    |    |    |    |    |
|------------------------0---0---|------------------------0---0---|
|----------------3---3-----------|----------------3---3-----------|
|3-------3-----3-----------------|3-------3-----3-----------------|
|--------------------------------|--------------------------------|

 |    |    |    |    |    |    |    |
|------------------------0---0---|------------------------0---0---|
|----------------3---3-----------|----------------3---3-----------|
|3-------3-----3-----------------|3-------3-----3-----------------|
|--------------------------------|--------------------------------|

 |    |    |    |    |    |    |    |
|------------------------0---0---|--------------------------------|
|----------------3---3-----------|--------------------------------|
|3-------3-----3-----------------|3-------3-------3---2---3---4---|
|--------------------------------|--------------------------------|

 |    |    |    |    |    |    |    |
|----------------------------2---|----------------------------2---|
|0-------0-------0-------0-------|0-------0-------0-------0-------|
|--------------------------------|--------------------------------|
|--------------------------------|--------------------------------|

 |    |    |    |    |    |    |    |
|----------------------------2---|0---0---0---0---0---0---0---0---|
|0-------0-------0-------0-------|--------------------------------|
|--------------------------------|--------------------------------|
|--------------------------------|--------------------------------|

 |    |    |    |    |    |    |    |
|0---0---0---0---0---0---0---0---|--------------------------------|
|--------------------------------|--------------------------------|
|--------------------------------|3-------------------------------|
|--------------------------------|----0-----------1-------2-------|

 |    |    |    |    |    |    |    |
|--------------------------------|--------------------------------|
|--------------------------------|--------------------------------|
|--------------------------------|3-------------------------------|
|3---3---3---3---3---3---3---3---|----0-----------1-------2-------|

 |    |    |    |    |    |    |    |
|--------------------------------|--------------------------------|
|--------------------------------|--------------------------------|
|--------------------------------|3-------------------------------|
|3---3---3---3---3---3---3---3---|----0-----------1-------2-------|

 |    |    |    |    |    |    |    |
|--------------------------------|--------------------------------|
|--------------------------------|--------------------------------|
|--------------------------------|3-------------------------------|
|3---3---3---3---3---3---3---3---|----0-----------1-------2-------|

 |    |    |    |    |    |    |    |
|--------------------------------|--------------------------------|
|--------------------------------|--------------------------------|
|--------------------------------|3-------------------------------|
|3---3---3---3---3---3---3---3---|--------------------------------|



m/

Find guitar tabs and chords

A B C D E F G H I J K L M N O P Q R S T U V W X Y Z #