Log in

One click and you are in

Login with Facebook Login with Google

Why sign up and log in

Guitar Tabs Explorer
The Hollies tabs for Long way down

Guitar tabs

From mcarman@du.edu Thu Sep 14 07:14:04 1995
    14 Sep 95 01:14:54 -0600
    14 Sep 95 01:14:19 -0600
Status: RO

"Long Way Down"
Intro / Chorus:
------------------------------------------------------------
------------------------------------------------------------
----------------------------------------------2--2-2--2-2-2-
-7/9-X-9---9-9/12--12-11--11\9--5--5-5--5-5-5-2--2-2--2-2-2-    Repeat!
-7/9-X-9---9-9/12--12-11--11\9--5--5-5--5-5-5-0--0-0--0-0-0-
-5/7-X-7---7-7/10--10--9---9\7--3--3-3--3-3-3---------------

Verses:
        Oh, here you are, there's nothing left to say. .
------------------------------------------------------------
------------------------------------------------------------
-4----------------------------------------------------------
-4----------------------------------------------------------
-2----------------------------------------------------------
------------------------------------------------------------

          You're not supposed to ....
------------------------------------------------------------
------------------------------------------------------------
-----------------------2--2-2--2-2-2-----4------------------
-9--7--5--5-5--5-5-5---2--2-2--2-2-2-----4------------------
-9--7--5--5-5--5-5-5---0--0-0--0-0-0-----2------------------
-7--5--3--3-3--3-3-3----------------------------------------

                       ####  #   #  #      ###  # # #
  Michael P. Carman   #   # #   #  #     #   # # # #  University of Denver
   (mcarman@du.edu)    #   # #   #  #     ##### # # #     College of Law
                       #### o ### o ##### #   # ## ##

Almost there ...

Sign in to get your own page with links to favourite songs and more. You are just one click away...

Login with Facebook Login with Google