Log in

One click and you are in

Login with Facebook Login with Google

Why sign up and log in

Guitar Tabs Explorer
Holiday tabs for We three kings

Guitar tabs with lyrics

Reply-To: whc2993@ritvax.isc.rit.edu
Nntp-Posting-Host: vaxa.isc.rit.edu

Christmas is still a little ways off but now can be a chance to learn some cool
tunes to play for friends and family.
If anyone has the music for TMBG's `Santa's Beard' or the Kinks 'Father
Christmas' please post them, or any other Christmas stuff.  I'll start things
off with a version of We Three Kings.  Try this one clean or on acoustic.
This song is in 3/4 time and should read pretty easily.

			WE THREE KINGS

 V~~~~~~~~~~~~~~~~~~~~~repeat~~~~~~~~~
|-------|-----0-|-2-3-2-|-0-----|    |-------|-------|-------|-------|
|-0-----|-------|-4-4-4-|-0-----|\  O|-------|-------|-0---0-|-3-1-0-|
|-0---2-|-0---0-|-------|-0-----| \  |-0---0-|-2---2-|-0---0-|-0-2-0-|
|-2---1-|-2-----|-------|-------|  \ |-0---0-|-0---0-|-2---2-|-0-----|
|-------|-------|-------|-------|O  \|-2---2-|-0---0-|-------|-------|
|-------|-------|-------|-----0-|    |-------|-------|-------|-------|

                                 V~~~~~~~~~~~~~~~~~~~~~~~~repeat~~~~~~
|-------|-------|-----0-|-------|-------|-------|-------|-------|    |
|-------|-------|-----0-|-------|-------|-------|-------|-------|\  O|
|-2-4-2-|-0-----|-------|-----2-|-0---0-|-0-----|-0-----|-0-----| \  |
|-2-4-2-|-1---4-|-2-----|-4---2-|-0---0-|-0---0-|-2---2-|-0-----|  \ |
|-------|-----2-|-2-----|-3-----|-2---2-|-2-----|-3-----|-2-----|O  \|
|-------|-------|---0---|-------|-------|-------|-------|-------|    |


|-------|-------|-------|-------|-------|-------|-------|-3-----|
|-------|-----0-|-1---0-|-----0-|-------|-------|-------|-3-----|
|-0---0-|-2---0-|-2---0-|-2---0-|-0---0-|-0-----|-0-----|-0-----|
|-2---2-|-4-----|-2-----|-4-----|-0---0-|-0---0-|-2---2-|-0-----|
|-------|-------|-------|-------|-2---2-|-2-----|-3-----|-------|
|-------|-------|-------|-------|-------|-------|-------|-3-----|


********************************************************************************
"The blues is a low down achein' chill"  Robert Johnson
********************************************************************************

Other versions of We Three Kings

We three kingsChords

Almost there ...

Sign in to get your own page with links to favourite songs and more. You are just one click away...

Login with Facebook Login with Google