Log in

One click and you are in

Login with Facebook Login with Google

Why sign up and log in

Guitar Tabs Explorer
Holiday tabs for Rudolph

Guitar tabs with lyrics

Well folks, here's my version of a Christmas classic. The chord voicings
are pretty straight-forward, hopefully enough so that you'll be able to
share this with your loved ones (along with a few other songs) on
Christmas eve... Enjoy!


                       RUDOLPH THE RED-NOSED REINDEER
                     Arranged for guitar by Mark Leslie
                  * * * * * * * * * * * * * * * * * * * *


           <----------------------------- repeat -->

e|--------|---------------------|------------------|
A chord diagramBB|-----0--|--1---------0--------|------------------|
A chord diagramG+G|--2-----|--2--2------0--0-----|--2---------2--0--|
A chord diagramD MajorD|--------|--3-----3---2-----2--|--3--3------2-----|
A chord diagramA augmentedA|--------|---------------------|--5-----5---3-----|
A chord diagramE MajorE|--------|---------------------|------------------|

  You Know  Dasher +  Dancer +    P....


|-----------------|---------------|------------------|-------------------|
|-----------------|---------------|------------------|-------------------|
|-----------------|--2------2--4--|--5--5---5--4--2--|-0------0----------|
|--2---2---2---2--|--2------2-----|--4------4--------|-0------3----------|
|--3-------3------|--3------------|--5------5--------|-2------2----------|
|--5-------5------|---------------|------------------|--------3----------|

   But do you re-  call   ....

|--------------------|-----------|---------------------|-----------------|
|-----------------1--|-----------|------------------1--|---0-------------|
|--0---2---0---------|--2----0---|--0--2--0--2--0---2--|---0-------------|
|--2-----------2-----|--2--------|--2-----------2---1--|---0-------------|
|--3-----------3-----|--3--------|--3-----------3------|-----------------|
|--------------3-----|-----------|---------------------|-----------------|

  Rudolph the red nosed reindeer,  had a ....


|-------------------|----------|-------------------------|---------------|
|----------------0--|----------|-------------------------|---------------|
|-----0-------------|--2----0--|--0---2---0---2---0---2--|---0-----------|
|--3-----3---0------|--0-------|--0---------------1------|---2-----------|
|--2---------2------|--2-------|--2---------------2------|---3-----------|
|--3---------3------|----------|-------------------------|---------------|

 And if you  ev--er    saw  it, ....


|--------------------|-----------|------------------------|--------------|
|-----------------1--|-----------|---------------------1--|---0----------|
|--0---2---0---------|--2----0---|--0--2---0----2--0---2--|---0----------|
|--2-----------2-----|--2--------|--2--------------2---1--|---0----------|
|--3-----------3-----|--3--------|--3--------------3------|--------------|
|--------------3-----|-----------|------------------------|--------------|

  All of  the  other    reindeer  ...


|-------------------|----------|-------------------------|---------------|
|----------------0--|----------|----------------------3--|---1-----1-----|
|-----0-------------|--2----0--|--0---2---0---2----------|---0-----3-----|
|--3-----3---0------|--0-------|--0---------------0------|---2-----2-----|
|--2---------2------|--2-------|--2---------------2------|---------3-----|
|--3---------3------|----------|------------------3------|---------------|

 They never let poor   Rudolph   join ...


|-----------------|---------------|----------------|---------------------|
|----------1------|---------------|----------------|---------2-----------|
|--2---2---2---2--|--0---------0--|-----2---0------|---------3-----------|
|--3-------3------|--2----2----2--|--3------0---3--|--2------2-----------|
|--3--------------|--3---------3--|--5------2------|--3------------------|
|-----------------|---------------|----------------|--3------------------|

 Then one  fogg-y   Christmas  eve   ...


|-----------------|---------------|--------------------|-----------------|
|-----------------|--0---0---0----|--1----1----0-------|-----------------|
|----------0---2--|--0-------1----|--0---------2----2--|--0--------------|
|--0---2---0------|--0-------0----|--2---------0-------|--0----3----0----|
|--2-------2------|---------------|--0-----------------|--2---------2----|
|--3--------------|---------------|--------------------|------------3----|

  Rudolph with your nose so bright  Won't ...


|--------------------|-----------|--------------------------|------------|
|-----------------1--|-----------|-----------------------1--|---0--------|
|--0---2---0---------|--2----0---|--0---2---0---2---0----2--|---0--------|
|--2-----------2-----|--2--------|--2---------------2----1--|---0--------|
|--3-----------3-----|--3--------|--3---------------3-------|------------|
|--------------3-----|-----------|--------------------------|------------|

 Then how the reindeer ...


|----------------------|----------|--------------------------|--0--------|
|-------------------0--|----------|-----------------------3--|--1--------|
|------0---------------|--2----0--|--0----2---0---2---0---0--|--0--------|
|--3-------3---0-------|--3-------|--0----------------0---0--|--2--------|
|--2-----------2-------|--2-------|--2----------------2---2--|--3--------|
|--3-----------3-------|----------|-------------------3------|-----------|

  Rudloph the red nosed  ...

*_*_*_*_*_*_*_*_*_*_*_*_*_*_*_*_*_*_*_*_*_*_*_*_*_*_*_*_*_*_*_*_*_*_*
                      27th Floor Productions
Mark & Nancy Leslie       PO Box 11737         email: mleslie@use.com
                        Indpls, IN 46201
*_*_*_*_*_*_*_*_*_*_*_*_*_*_*_*_*_*_*_*_*_*_*_*_*_*_*_*_*_*_*_*_*_*_*

Other versions of Rudolph

RudolphChords

Almost there ...

Sign in to get your own page with links to favourite songs and more. You are just one click away...

Login with Facebook Login with Google