GuitarTabsExplorer icon
GuitarTabsExplorer icon

Log in

Songbook

  • Log in to add and see bookmarks

Last visited songs

    No songs visited yet...

Grandma Runover By Reindeer by Holiday

Tabs

Path: hydra.acs.ttu.edu!hermes.chpc.utexas.edu!cs.utexas.edu!howland.reston.ans.net!europa.eng.gtefsd.com!emory!cs.utk.edu!coke.cs.utk.edu!clavenna
Newsgroups: rec.music.makers.guitar.tablature
Followup-To: alt.guitar.tab
Distribution: world
Message-ID:
References:
Reply-To: [email protected] (Mike Clavenna)
NNTP-Posting-Host: coke.cs.utk.edu

>>>>I can not take credit for the following. Someone else posted
>>>>it last year (sorry I don't have that person's name).
>>>>Best regards,
>>>>Michael Vincze
>>>>[email protected]

>>>>This is not straight off the record and I didn't compare the two.

:> I just reposted it...no promises.
:> Mike.

GRANDMA GOT RUNOVER BY Chord diagramA augmentedA REINDEER

This arrangement combines the melody and some backup. If you sing along you
can follow the chords using this:
Basic Accompaniment Pattern: follow chord progression.
Chord diagramC majorC
|----0-----0-----0-----0-|
|----1-----1-----1-----1-|
|----0-----0-----0-----0-|
|------------------------|
|-3-----------3----------|
|-------3-----------3----|
The song is in 4/4 time. Almost every note is an 1/8 note. When you see 0^2 it
means play the string open then quickly hammer on at the 2nd fret. It is
called a grace note. The hammer should fall on the beat.

Intro
Chord diagramC majorC
|----0-----0--------------|
|----1-----1--------------|
|----0-----0--------------|   <--play twice
|-------------------------|
|-3-----------3-----0--2--|
|-------3--------3--------|

Chord diagramC majorC
Grand-ma got run  o-ver ....
|------0-------0----------------|-------0--0------0------0-|
|------1-------1----------------|-------1--1------1------1-|
|------0-------0----------------|-0-----0--0------0------0-|
|-0^2-----0^2-----0^2--2--0-----|----2--------0^2---0^2----|
|----------------------------3--|--------------------------|
|-------------------------------|--------------------------|

                   Chord diagramFF
Walking home from our house ....
|------------------------------------|----1-----1-----1-----1--|
|------------------------------------|----1-----1-----1-----1--|
|--------------0---------------------|----2-----2-----2-----2--|
|2--2----2---------3----2-------0--2-|-3-----------3-----------|
|------------------------------------|-------3-----------3-----|
|------------------------------------|-------------------------|
                   Chord diagramC majorC
You can say there's no such ....
|-----------------------------------|--------0---0------0------0-|
|-----------------------------------|--------1---1------1------1-|
|2---2---2----2-----2---2-----0-----|-0------0---0------0------0-|
|---------------------------------3-|----2----------0^2----0^2---|
|-----------------------------------|----------------------------|
|-----------------------------------|----------------------------|







Chord diagramG7G7              Chord diagramC majorC
as for me and ....
|----1-----------------------|------0-----0------------|
|----0-----------------------|------1-----1------------|
|----0-----------------------|------0-----0------------|
|0------0^2--3---2---0-------|-------------------------|
|-----------------------3--2-|-3-------------3-----0--2|
|----------------------------|---------3--------3------|

                 Chord diagramG7G7
     (see additional lyrics for verses 2 and 3)
  She'd been drinking ....,
|--------------------------------|---------1---1------1------1-|
|--------------------------------|---------0---0------0------0-|
|--------------------------------|---------0---0------0------0-|
|----2----2----2---2----0--------|-----------------------------|
|3---------------------------3---|-3--2-----------0^2----0^2---|
|--------------------------------|-----------------------------|


               Chord diagramC majorC
  and we begged her .....
|---------------------------|-----0------0----0-------0--|
|---------------------------|-----1------1----1-------1--|
|------------0--------------|-----0------0----0-------0--|
|----0--2----------0------0-|-2-----0^2-----2----0^2-----|
|----------------------3----|----------------------------|
|-3-------------------------|----------------------------|


        Chord diagramC7C7      Chord diagramFF
  but she forgot her med-i - ca....
|----------------------------|----------1--1-------1---------|
|----------------------------|----------1--1-------1---------|
|-----------------------0--0-|-2--------2--2-0^2---2---------|
|2--------------2---2--------|------3------------------3---2-|
|----3---3---3---------------|-------------------------------|
|----------------------------|-------------------------------|


Chord diagramG7G7                  Chord diagramC majorC
stag - gered out the door ....
|------------------------------------|-----0-------0-------0-------|
|------------------------------------|-----1-------1-------1-------|
|------------------------------------|-----0-------0-------0-------|
|-0-----0-----2---3---2---0----------|--------0^2-----0^2----------|
|------------------------------3---2-|--3---------------------3--2-|
|------------------------------------|-----------------------------|


 Chord diagramA minorAm                Chord diagramE minorEm
   When we found her ....
|--------------------------------|------------0--0-----0-----0--|
|--------------------------------|------------0--0-----0-----0--|
|--------------------------------|------------0--0-----0-----0--|
|----2---2----2----2----0--------|------------------------------|
|-0--------------------------3---|---3---2----------------2-----|
|--------------------------------|------------------0-----------|


Chord diagramG7G7              Chord diagramC majorC
  at the scene of ....
|---------------------------|-----0---------0------0-------0--|
|---------------------------|-----1---------1------1-------1--|
|---------------------------|-----0---------0------0-------0--|
|---0--2-----3---0------0---|--2-------0^2------2----0^2------|
|--------------------3------|---------------------------------|
|3--------------------------|---------------------------------|


                Chord diagramFF
  she had hoof-prints ...-
|------------------------------|-------------1--1-------1--------|
|------------------------------|-------------1--1-------1--------|
|-----------------------0---0--|---2---------2--2-0^2---2--------|
|------------2-----2-----------|-------3-------------------3--2--|
|3---3---3---------------------|---------------------------------|
|------------------------------|---------------------------------|


 Chord diagramG7G7                 Chord diagramC majorC
 crim-in-a-ting Claus marks ..
|----------------------------------|-------0-----0--------------|
|----------------------------------|-------1-----1--------------|
|----------------------------------|-------0-----0--------------|
|-0---0--2--3----2-----0-----------|----------------------------|
|---------------------------3---2--|--3-------------3-----0--2--|
|----------------------------------|----------3--------3--------|


And yes, I can accept the Pack-Rat of the Year Award :>


--
                _  __  _
 _ _ _    /        //  / ) // [email protected]
'))). __ /_  __. __  //  /  // __.    __  _ _  _ _  __.
 /  /  / / ) / ) ( | //  /  // / ) /) _(__> /)) /)) / )
/  / (_(__/ (_(__/|__\_/_

[ Privacy | About us ]

Welcome to the guitar community

Why join and log in?
- Get songbook with favourite songs
- Get custom made front page
- Submit chords and tabs
- Submit guitar-cover videos
- Get a lot of thumbs up for your work

Songbook

Last visited songs

Site
Home
Search
Community
Submit chords

Video

No video for this page. Check out how you can submit guitar-cover videos here

Search tabs and chords

Browse by artist

A B C D E F G H I J K L M N O P Q R S T U V W X Y Z #


Menu

Search

Video

Bookmark

Login