Log in

One click and you are in

Login with Facebook Login with Google

Why sign up and log in

Guitar Tabs Explorer
Holiday tabs for God rest ye merry gentlemen

Guitar tabs

I'm new to the guitar, but I figured this one out
in about ten minutes. It's easier then most of the
tabs I've seen, and it's good for noobs (myself).
It plays pretty much in full on high E.


e-0--0--7--7--5--3--2--0-----0--2--3--5--7----
B-------------------------3-------------------
G---------------------------------------------

e-0--0--7--7--5--3--2--0-----0--2--3--5--7----
B-------------------------3-------------------
G---------------------------------------------

e-7--8--5--7--8--10--12--7--5--3--0--2--3--5--
B---------------------------------------------
G---------------------------------------------

e-3--5--7----8--7--5--3--3-2-0--0--3-2-0--5---
B---------------------------------------------
G---------------------------------------------

e-3--5--7----8--7--5--3--3-2-0--0-------------
B---------------------------------------------
G---------------------------------------------

PS It's my first tab so bare with me.

Almost there ...

Sign in to get your own page with links to favourite songs and more. You are just one click away...

Login with Facebook Login with Google