Log in

One click and you are in

Login with Facebook Login with Google

Why sign up and log in

Guitar Tabs Explorer
Holguin Gnomie tabs for Limit

Guitar tabs

tuning:standard
album:hit the fuckin strings
band:gnomie holguin
song:limit
key:
/=slide
pm...=palm mute
      intro:
e|---------------------------------------------------------------
b|---------------------------------------------------------------
g|---------------------------------------------------------------
d|-----2-2-----3-3-----------------------------------------------
a|-2-2-0-0-3-3-1-1-----------------------------------------------
A chord diagramE MajorE|-0-0-----1-1---------------------------------------------------
  pm.............................................................
            riff#1
e|----1-2-1-3-1-2---1-2-1-3-1-2---1-2-1-3-1-2---1-2-----2-1------
b|-3-3-----------1-1-----------0-0-----------2-2-----1-1---------
g|---------------------------------------------------------------
d|---------------------------------------------------------------
a|---------------------------------------------------------------
A chord diagramE MajorE|---------------------------------------------------------------

            riff#2
e|---3|   e|---2|   e|---1|   e|---0---2--|
b|--3-|x2 b|--2-|x2 b|--1-|x2 b|--0---2---|
g|-3--|   g|-2--|   g|-1--|   g|-0---2----|
d|----|   d|----|   d|----|   d|----------|
a|----|   a|----|   a|----|   a|----------|
A chord diagramE MajorE|----|   A chord diagramE MajorE|----|   A chord diagramE MajorE|----|   A chord diagramE MajorE|----------|

          verse: bass does verse

          chorus:hit every measure 13 times
e|---|---|---|---|---|---|---|---|---|---|---|---|
b|---|---|---|---|---|---|---|---|---|---|---|---|
g|---|---|---|---|---|---|---|---|---|---|---|---|
d|---|---|---|---|---|---|---|---|---|---|---|---|
a|-9-|-7-|-5-|-4-|-12|-11|-9-|-7-|-12|-14|-11|-9-|
A chord diagramE MajorE|-7-|-5-|-3-|-2-|-10|-9-|-7-|-5-|-10|-12|-9-|-7-|

              just end with this:
               outro:

e|----|
b|----|
g|----|
d|----|
a|-9/-|
A chord diagramE MajorE|-7/-|

Almost there ...

Sign in to get your own page with links to favourite songs and more. You are just one click away...

Login with Facebook Login with Google