Log in

One click and you are in

Login with Facebook Login with Google

Why sign up and log in

Guitar Tabs Explorer
Hole bass tabs for Violet

Bass tabs

Violet
by Hole

To get the exact timings and rhythm you'll have to listen to the song.
  Verse               Pre-pre-chorus
G-------------------------------|------------------------------------------
D-------------------------------|------------------------------------------
A-7-7-7-7-7-7-7--3-3-3-3-3-3-3--|------------------------------------------
E------------------------------3|--0-0-0-0-0-0-0-1-1-1-1-1-1-1-3-3-3-3-3-3-3
(play another set of 7 on the
3rd fret E string)


     Pre-chorus
G--------------------------|
D--------------------------|
A-7-7-7-3-3-3-5-5-5--------|
E--------------------5-5-5-|


 Chorus
--------------------------------------------------------|
--------------------------------------------------------|
--------------------------------------------------------|
-0-0-0-0-0-0-7-8-8-8-8-8-8-8-10-10-10-10-10-10-10-5-4-0-|


 Bridge
G------
D------
A-------
E-0-----


Any corrections E-mail 'em to me at sasha@america.com

Almost there ...

Sign in to get your own page with links to favourite songs and more. You are just one click away...

Login with Facebook Login with Google