Log in

One click and you are in

Login with Facebook Login with Google

Why sign up and log in

Guitar Tabs Explorer
Hole tabs for Rock star

Guitar tabs

Titre:         Rock Star
Groupe:        Hole
Album:         Live Through This
Ecrit Par:     Hole
Transcrit Par: B. Lamoureux
----------------------------------------------------------------------
I just write the note, find the rhytm by yourself...it's easy..!

If you have any corrections for the lyrics, just e-mail me..

----------------------------------------------------------------------


    When I went to school, oh,      When I .....
|------------------------------------------------------------------------
|------------------------------------------------------------------------
|-9-9----------------------------9-9-------------------------------------
|-9-9----------------------------9-9-------------------------------------
|-7-7----------------------------7-7-------------------------------------
|-0-0----------------------------0-0-------------------------------------


                                        When ....
let ring and add feedback(distortion)   clean
|-------------------------------------|----------------------------------
|-------------------------------------|----------------------------------
|-------------------------------------|9-9-------------------------------
|-------------------------------------|9-9-------------------------------
|-------------------------------------|7-7-------------------------------
|-0-----------------------------------|0-0-------------------------------


In a limp the eye             And ...
                   distortion
|------------------------------------------------------------------------
|------------------------------------------------------------------------
|-8------------------6---------------------------------------------------
|-9------------------7---------------------------------------------------
|-9------------------7---------------------------------------------------
|-7------------------5---------------------------------------------------


Where do you do   With the r....
Part A chord diagramA augmentedA
|-------------------7-------------------5------------------------------|-
|-9-----------------7-------------------5------------------------------|-
|-9-----------------8-------------------6------------------------------|-
|-9-----------------9-------------------7------------------------------|-
|-7-----------------9-------------------7------------------------------|-
|-0-----------------7-------------------5------------------------------|-


When I went to school   In a limp the ....
play part A chord diagramA augmentedA
|------------------------------------------------------------------------
|------------------------------------------------------------------------
|------------------------------------------------------------------------
|------------------------------------------------------------------------
|------------------------------------------------------------------------
|------------------------------------------------------------------------


We look the same      We talk the ...
play part A chord diagramA augmentedA
|------------------------------------------------------------------------
|------------------------------------------------------------------------
|------------------------------------------------------------------------
|------------------------------------------------------------------------
|------------------------------------------------------------------------
|------------------------------------------------------------------------


DON'T       YOU         ....

part A chord diagramBB
|-----x-x-x-x-7-7-x-x-x-x-8--8--x-x-x-x-5-5-x-x-x-x--------------------|-
|-9-9-x-x-x-x-7-7-x-x-x-x-8--8--x-x-x-x-5-5-x-x-x-x--------------------|-
|-9-9-x-x-x-x-8-8-x-x-x-x-9--9--x-x-x-x-6-6-x-x-x-x--------------------|-
|-9-9-x-x-x-x-9-9-x-x-x-x-10-10-x-x-x-x-7-7-x-x-x-x--------------------|-
|-7-7-x-x-x-x-9-9-x-x-x-x-10-10-x-x-x-x-7-7-x-x-x-x--------------------|-
|-0-0-x-x-x-x-7-7-x-x-x-x-8--8--x-x-x-x-5-5-x-x-x-x--------------------|-


REAL        FUCK         YOU          .....

play part A chord diagramBB
|------------------------------------------------------------------------
|------------------------------------------------------------------------
|------------------------------------------------------------------------
|------------------------------------------------------------------------
|------------------------------------------------------------------------
|------------------------------------------------------------------------


SICK         ABOUT       .....

play part A chord diagramBB
|------------------------------------------------------------------------
|------------------------------------------------------------------------
|------------------------------------------------------------------------
|------------------------------------------------------------------------
|------------------------------------------------------------------------
|------------------------------------------------------------------------


REAL         FUCK         YOU

play part A chord diagramBB
|------------------------------------------------------------------------
|------------------------------------------------------------------------
|------------------------------------------------------------------------
|------------------------------------------------------------------------
|------------------------------------------------------------------------
|------------------------------------------------------------------------


When I went to school  In a limp the ....

play part A chord diagramA augmentedA
|------------------------------------------------------------------------
|------------------------------------------------------------------------
|------------------------------------------------------------------------
|------------------------------------------------------------------------
|------------------------------------------------------------------------
|------------------------------------------------------------------------


And so you           In a limp the ....

play part A chord diagramA augmentedA
|------------------------------------------------------------------------
|------------------------------------------------------------------------
|------------------------------------------------------------------------
|------------------------------------------------------------------------
|------------------------------------------------------------------------
|------------------------------------------------------------------------


We look the same    We talk the ....

play part A chord diagramA augmentedA
|------------------------------------------------------------------------
|------------------------------------------------------------------------
|------------------------------------------------------------------------
|------------------------------------------------------------------------
|------------------------------------------------------------------------
|------------------------------------------------------------------------


When I went to school   In a limp ....

play part A chord diagramA augmentedA
|------------------------------------------------------------------------
|------------------------------------------------------------------------
|------------------------------------------------------------------------
|------------------------------------------------------------------------
|------------------------------------------------------------------------
|------------------------------------------------------------------------


DON'T      YOU        ....

play part A chord diagramBB
|------------------------------------------------------------------------
|------------------------------------------------------------------------
|------------------------------------------------------------------------
|------------------------------------------------------------------------
|------------------------------------------------------------------------
|------------------------------------------------------------------------


REAL       COME       ....

part A chord diagramBB
|------------------------------------------------------------------------
|------------------------------------------------------------------------
|------------------------------------------------------------------------
|------------------------------------------------------------------------
|------------------------------------------------------------------------
|------------------------------------------------------------------------


SICK       COME        ...

part A chord diagramBB
|------------------------------------------------------------------------
|------------------------------------------------------------------------
|------------------------------------------------------------------------
|------------------------------------------------------------------------
|------------------------------------------------------------------------
|------------------------------------------------------------------------


REAL       yeah         ...

part A chord diagramBB
|------------------------------------------------------------------------
|------------------------------------------------------------------------
|------------------------------------------------------------------------
|------------------------------------------------------------------------
|------------------------------------------------------------------------
|------------------------------------------------------------------------


    ? ??  ? ?      ? ? ?      ? ? ?  do it do it ....


|------7---8-----5-------------------------------------------------------
|-9----7---8-----5-------------------------------------------------------
|-9----8---9-----6-------------------------------------------------------
|-9----9---10----7-------------------------------------------------------
|-7----9---10----7-------------------------------------------------------
|-0----7---8-----5-------------------------------------------------------


When I went to school  In a ...


|------------------------------------------6-----------------------------
|------------------------------------------6-----------------------------
|-9--9-------------------8--8--------------7-----------------------------
|-9--9-------------------9--9--------------8-----------------------------
|-7--7-------------------9--9--------------8-----------------------------
|------------------------7--7--------------6-----------------------------


       good bye!


|------------------------------------------------------------------------
|------------------------------------------------------------------------
|------------------------------------------------------------------------
|------------------------------------------------------------------------
|------------------------------------------------------------------------
|------------------------------------------------------------------------


Ce fichier a t cre par Tab 1.1

--PART.BOUNDARY.902.4296.nyongwa.montreal.qc.ca.784582331.1--

Almost there ...

Sign in to get your own page with links to favourite songs and more. You are just one click away...

Login with Facebook Login with Google