Log in

One click and you are in

Login with Facebook Login with Google

Why sign up and log in

Guitar Tabs Explorer
Hole tabs for Plump

Guitar tabs with lyrics

Plump
HOLE - from Live Through This

Tab transcribed by rohin bhalla aka PenCapChew
(Rohin_Bhalla@teachnet.edb.utexas.edu)

This is really accurate, but I'm sortof unsure of how the bridge at 1:14 is
exactly .
Intro/VERSE
   A chord diagramF#5F#5
         A chord diagramA5A5         A chord diagramE5E5
||---------------------------------------------------------------------||
||---------------------------------------------------------------------||
||---------------------------------------------------2-2---------------||
||-4--4--4-4-4-4--4--4--4-4-4-4---4--4--4-4-4-4----2-2---2-2--------||
||-4--4--4-4-4-4--4--4--4-4-4-4---4--4--4-4-4-4----0-0---2-2--------||
||-2--2--X-X-X-X---2--2--X-X-X-X---2--2--X-X-X-X-----------0-0--------||
    (play A chord diagramF#5F#5 twice then lift your index finger to mute the open low A chord diagramE MajorE string)


CHORUS
        A chord diagramE5E5           A chord diagramD5D5
||-----------------------------------||
||---------------7-------------------||
||----9--9-------7-------------------||
||----9--9----7--7-------------------||
||----7--7----5--5-------------------||
||-----------------------------------||
"I'm eating you...."


BRIDGE
||----------------------------------------------------------------||
||----------------------------------------------------------------||
||----------------------------------------------------------------||
||----------------------------------------------------------------||
||--2-2-2-2-2-2-2-2----------------------------------------------||
||--------------------/3-3-3-3-3-3-3-3---------------------------||
   really low, seems to fade out near the end of the bridge..
  has some other guitar stuff over this that i couldn't figure out

OUTRO
||---------------------------------------------------------------------||
||---------------------------------------------------------------------||
||---------------------------------------------------2--2--2--2/-------------||
    ||-4--4--4-4-4-4--4--4--4-4-4-4---4--4--4-4-4-4----2--2--2--2/-------||
||-4--4--4-4-4-4--4--4--4-4-4-4---4--4--4-4-4-4----0--0--0--0-------||
||-2--2--X-X-X-X---2--2--X-X-X-X---2--2--X-X-X-X-------------------||
                                                          -slide all the way
to your last fret^

towards the bridge

PLEASE send comments to rohin_bhalla@teachnet.edb.utexas.edu

-PenCapChew


--

-=-=-=-=-=-=-=-=-=-=-=-=-=-=-=-=-=-=-=-=-=-=-=-=-=-=-=-=-=-=-=-=-=-
 TeachNet, College of Education, University of Texas, Austin Texas
-=-=-=-=-=-=-=-=-=-=-=-=-=-=-=-=-=-=-=-=-=-=-=-=-=-=-=-=-=-=-=-=-=-

Other versions of Plump

PlumpChords
Plump (Ver. 2)Tabs

Almost there ...

Sign in to get your own page with links to favourite songs and more. You are just one click away...

Login with Facebook Login with Google