Log in

One click and you are in

Login with Facebook Login with Google

Why sign up and log in

Guitar Tabs Explorer
Hole tabs for Mr jones

Guitar tabs with lyrics

=-=-=-=-=-=-=-=-=-=-=-=-=-=-=-=-=-=-=-=-=-=-=-=-=-=-=-=-=-=-=-=-=

Mrs.Jones -Hole

=-=-=-=-=-=-=-=-=-=-=-=-=-=-=-=-=-=-=-=-=-=-=-=-=-=-=-=-=-=-=-=-=

tabbed by: Chrissy Fraser <cyber-surfer@pei.sympatico.ca>

Tab Definition:
/ denotes a slide

I kinda came across this by accident as well. I was trying to write
something of my own and some how ended up with this. This has been
happening to me ALL the time lately...... weird huh? Again I haven't
included the speed and all that but if you've heard the song you
probably know that it's just strumming the chords really fast. It's
easy to hear. And also once again I haven't included the power chord
names cause I don't know them :) All I can say is POST MORE STUFF FROM
PRETTY ON THE INSIDE!!! As usual my requests are ignored *sigh*......
Also, if anybody has the rest of this could you send it to me? That
would be really great cause this is just the main riff. You can play
with it a bit. For a SLIGHT variation you can try sliding up to the
power chords instead of just playing them straight. It still sounds
pretty much the same though. I've included the lyrics for those of you
who find Courtney's scream entirely un-decipherable. I'm not sure of
some parts, this song is hard at times. There is practicly no way
you can fugure them out from the way they're written in the album insert.
If any body wants the lyrics (the correct ones that is) for practicly
any hole songs e-mail me and I'll send them to you. I've got most.

=-=-=-=-=-=-=-=-=-=-=-=-=-=-=-=-=-=-=-=-=-=-=-=-=-=-=-=-=-=-=-=-=-=


Tuning: Regular (eBGDAE)

Power Chords:
e:-------------------
B:-------------------
G:-------------------
D:---6---5---4---3---
A:---6---5---4---3---
E:---4---3---2---1---

Intro/Verses:
e:-----------------------------------------------------------
B:-----------------------------------------------------------
G:-----------------------------------------------------------
D:-6-6-6-6-6-6-6-6-5-5-5-5-5-5-5-5-4-4-4-4-4-4-4-4-3-3-3-3-3-
A:-6-6-6-6-6-6-6-6-5-5-5-5-5-5-5-5-4-4-4-4-4-4-4-4-3-3-3-3-3-
E:-4-4-4-4-4-4-4-4-3-3-3-3-3-3-3-3-2-2-2-2-2-2-2-2-1-1-1-1-1-

e:------------    Slide back down to 6 and keep repeating this
B:------------                       6
G:------------                       4
D:-3-3-3/-----    riff until the chorus. All the verses in this
A:-3-3-3/-----    song are exactly the same. Just this riff
E:-1-1-1/-----    pretty simple huh?

=-=-=-=-=-=-=-=-=-=-=-=-=-=-=-=-=-=-=-=-=-=-=-=-=-=-=-=-=-=-=-=-=-=-=


Well that's it for now. I'll post the rest when I figure it out. Sorry
that the l yrics aren't easier to read. I didn't put any periods or
anything in there so they might be a bit hard to follow.

Almost there ...

Sign in to get your own page with links to favourite songs and more. You are just one click away...

Login with Facebook Login with Google