GuitarTabsExplorer icon
GuitarTabsExplorer icon

Log in

Songbook

  • Log in to add and see bookmarks

Last visited songs

    No songs visited yet...

He Hit Me by Hole

Tabs

From [email protected] Fri May 16 08:05:13 1997
Cc: [email protected]

  [The following text is in the "ISO-8859-1" character set]
  [Your display is set for the "US-ASCII" character set]
  [Some characters may be displayed incorrectly]

HOLE
he hit me(and it felt like a kiss)
mtv.unplugged
written by carole king

okay, i haven't got this fully figured out but this might give you an idea.
if anyone can do better, please let me know because i love this song.

E---------------------------------------------------------------------------
-----
B---------------------------------------------------------------------------
-----
G---------------------------------------------------------------------------
-----
D---5-5-5-5-5-5-5//7-7-7-7-7-7-7---------------------------------------
A---5-5-5-5-5-5-5//7-7-7-7-7-7-7---------------------------------------
E---3-3-3-3-3-3-3//5-5-5-5-5-5-5---------------------------------------

repeat this for the intro and most of the verses, sliding from a powerchord
Chord diagramG+G to an Chord diagramA augmentedA and then back to a Chord diagramG+G etc.

verse   Am-C-G

E-0--0---3------------------------------------------------------------------
---------
B-1-
1---3-----------------------------------------------------------------------
---
G-2
-0---0----------------------------------------------------------------------
---
D-2
-2---0----------------------------------------------------------------------
---
A-0--3--
2---------------------------------------------------------------------------

E-0- -0-
3--------------------------------------------------------------------------


[email protected]

Other versions of He Hit Me

Alternative guitar chords and tabs for He Hit Me by Hole

VersionType
He hit meChords

[ Privacy | About us ]

Welcome to the guitar community

Why join and log in?
- Get songbook with favourite songs
- Get custom made front page
- Submit chords and tabs
- Submit guitar-cover videos
- Get a lot of thumbs up for your work

Songbook

Last visited songs

Site
Home
Search
Community
Submit chords

Video

No video for this page. Check out how you can submit guitar-cover videos here

Search tabs and chords

Browse by artist

A B C D E F G H I J K L M N O P Q R S T U V W X Y Z #


Menu

Search

Video

Bookmark

Login