Log in

One click and you are in

Login with Facebook Login with Google

Why sign up and log in

Guitar Tabs Explorer
Hole chords for Drag

Guitar chords

Album: "Malibu" single
Tabbed by: RockStarDoll (rockstardoll7@hotmail.com)

INTRO
A chord diagramE MajorE|----------------------------------------------0-0-0---
b|-----------------------------------------------------0
g|---------------------------------------------------0--
d|4/8-8-8-9-9-9\4-----8---9-4-----8---9-4-----8---------
a|4/8-8-8-9-9-9\4----8---9--4----8---9--4----8----------
e|2/6-6-6-7-7-7\2---6---7---2---6---7---2---6-----------

RIFF 1 (Pre Verse)
A chord diagramE MajorE|--------------0-0--    -------------------
b|------------------0    -------------------
g|-------------------    -------------------
d|8-8-8-9-9-9-4------ x3 8-8-8-9-9-9-4-4-4-4
a|8-8-8-9-9-9-4------    8-8-8-9-9-9-4-4-4-4
e|6-6-6-7-7-7-2------    6-6-6-7-7-7-2-2-2-2


RIFF 2 (Verse)
A chord diagramE MajorE|---------------------------
b|---------------------------
g|---------------------------
d|4-4-4-4-4-4-4-4-8-8-8-9-9-9
a|4-4-4-4-4-4-4-4-8-8-8-9-9-9
e|2-2-2-2-2-2-2-2-6-6-6-7-7-7

A chord diagramE MajorE|---------------------------------------------------
b|--------------------------------------------------
g|---------------------------------------------------
d|8-8-4-4-4-4-7-7-4-4-4-4--9-8-8/9\8--9-8-8/9\8-8/9\8
a|8-8-4-4-4-4-7-7-4-4-4-4----------------------------
e|6-6-2-2-2-2-5-5-2-2-2-2----------------------------

RIFF 4 (Chorus)
A chord diagramE MajorE|-------------------------------
b|-------------------------------
g|-------------------------------
d|11-11-11-11-7-7-7-6-6-6-4-4-4-4
a|11-11-11-11-7-7-7-6-6-6-4-4-4-4
e|9--9--9--9--5-5-5-4-4-4-2-2-2-2

RIFF 5 (Post Chorus)
A chord diagramE MajorE|----------------------
b|----------------------
g|----------------------
d|---11------7---6---4--
a|-11--11---7---6---4-4-
e|9------9-5---4---2---2

SONG ORDER

Intro

Riff 1

Riff 2x4

Riff 3

Riff 4x5

Riff 1

Riff 2x6

Riff 3

Riff 4x5

Riff 5

Riff 4x7

Then, do this:
A chord diagramE MajorE|--------------
b|--------------
g|--------------
d|7-9-11---7-6-4
a|7-9-11---7-6-4
e|5-7--9---5-4-2


Outro (Riff 4x12)

________________________________________________________________________________

Other versions of Drag

Drag (Ver. 2)Chords

Almost there ...

Sign in to get your own page with links to favourite songs and more. You are just one click away...

Login with Facebook Login with Google