Log in

One click and you are in

Login with Facebook Login with Google

Why sign up and log in

Guitar Tabs Explorer
Hole tabs for Doll parts

Guitar tabs

Hole "Doll Parts"


1. I am doll eyes doll mouth doll ...
2. I am doll parts bad skin doll ....
                                                    of my life

Verse

|----------------------------|-----------------------|---------------------|
|--2------2------2-----------|--0------0----0--------|--0------------------|
|--2------2------2-----------|--0------0----0--------|--0------------------|
|--2------2------2------2----|--2------2----2--------|--0------------------|
|--0------0------0------0----|--3------3----3----2---|--2-----2------2-----|
|----------------------------|-----------------------|--3-----3------3---0-|
|-----------------------|
|--0------0---0---------|
|--0------0---0---------|
|--2------2---2---------|
|--3------3---3----0----|
|-----------------------|


Yeah they really want you they ...
Yeah they really want you they really ....


|----------------------------|-----------------------|---------------------|
|--2------2------2-----------|--0------0----0--------|--0------------------|
|--2------2------2-----------|--0------0----0--------|--0------------------|
|--2------2------2------2----|--2------2----2--------|--0------------------|
|--0------0------0------0----|--3------3----3----2---|--2-----2------2-----|
|----------------------------|-----------------------|--3-----3------3---0-|

|-----------------------|
|--0------0---0---------|
|--0------0---0---------|
|--2------2---2---------|
|--3------3---3----0----|
|-----------------------|




Pre-chorus


I want to be the girl with the most cake I love him....
|------------------------------------3---|---------------------------------|
|--2------2----2---2--0-----0--------3---|---------------------------------|
|--2------2----2---2--0-----0--------0---|---------------------------------|
|--2------2----2---2--2-----2--------0---|---------------------------------|
|--0------0----0---0--3-----3---2----2---|---------------------------------|
|------------------------------------3---|---------------------------------|


|------3---3---3---3--3-------|
|--3---3---3---3---3--3-------|
|--0---0---0---0---0--0--0----|
|--0---0---0---0---0--0--0----|
|----------2---2---2--2--2----|
|--------------3---3--3--3----|


Chorus

And someday you will ....
                                                -----play 4x--------------
|----------------------------------3--|--------|-3--3--3--3--3--3----------|
|--2----2----2---2----0----0-------3--|--------|-3--3--3--3--3--3---x------|
|--2----2----2---2----0----0-------0--|--------|-0--0--0--0--0--0---x------|
|--2----2----2---2----2----2-------0--|--------|-0--0--0--0--0--0---x------|
|--0----0----0---0----3----3----2--2--|--------|-2--2--2--2--2--2---x------|
|----------------------------------3--|--------|-3--3--3--3--3--3---x------|


And someday you will ....

|-----------------------------------------3---|--------------|-------------|
|----------------------0------0-----------3---|--------------|-------------|
|----------------------0------0-----------0---|--------------|-------------|
|--2------2----2---2---2------2-----------0---|--------------|-------------|
|--0------0----0---0---3------3-----2-----2---|--------------|-------------|
|-----------------------------------------3---|--------------|-------------|


Outro-chorus

And someday you will ...
                                             ------play 4x-----------------
|--------------------------------3--|--------|----3--3--3--3--3------------|
|-2------2---2---2---0---0-------3--|--------|-3--3--3--3--3--3------------|
|-2------2---2---2---0---0-------0--|--------|-0--0--0--0--0--0--0---------|
|-2------2---2---2---2---2-------0--|--------|-0--0--0--0--0--0--0---------|
|-0------0---0---0---3---3---2---2--|--------|-------2--2--2--2--2---------|
|--------------------------------3--|--------|----------3--3--3--3---------|


And someday you will ....
                                    ------play 6x-------
|--------------------------------3--|------3----3-------|
|-2------2---2---2---0---0-------3--|------3----3-----3-|
|-2------2---2---2---0---0-------0--|------0----0-----0-|
|-2------2---2---2---2---2-------0--|--0--------0-----0-|
|-0------0---0---0---3---3---2---2--|--2----------------|
|--------------------------------3--|--3----------------|

---------------------------------
|---------------3----3---3--------|
|----------3----3----3---3--------|
|------0---0----0----0---0----x---|
|--0---0---0----0----0---0----x---|
|--2------------2----2---2----x---|
|--3------------3----3---3----x---|


Someday you will ....

|--------------------------------------3--|--------------------------------|
|---2--------------------0----0--------3--|--------------------------------|
|---2--------------------0----0--------0--|--------------------------------|
|---2-----2----2----2----2----2--------0--|--------------------------------|
|---0-----0----0----0----3----3----2---2--|--------------------------------|
|--------------------------------------3--|--------------------------------|


h = hammeron                      x = ghost note
p = pulloff                       % = repeat last bar
/\ = slide up/down                p.s. = pickscrape
~ = vibrato                       dive = dive with bar
t = tap

/---------------------------------\
|The Music Shop BBS (619)423-4970 |
\---------------------------------/

Other versions of Doll Parts

Doll partsChords
Doll parts (Ver. 2)Chords
Doll parts (Ver. 2)Tabs

Almost there ...

Sign in to get your own page with links to favourite songs and more. You are just one click away...

Login with Facebook Login with Google