Log in

One click and you are in

Login with Facebook Login with Google

Why sign up and log in

Guitar Tabs Explorer
Hole tabs for Credit in the straight world (Ver. 2)

Tabs

Hole - Credit In The Straight World (Live Through This Album)


 Intro

e- ----------------------------------------------------|
B- ----------------------------------------------------|
G- ----------------------------------------------------|
D- -22222222-44444444-99999999-8888--------------------|
A- -22222222-44444444-77777777-6666-0-2-0--------------|
E- -00000000-00000000-00000000-0000--------------------|
pm   ** ** *  ** ** *  ** ** *  **

e- ----------------------------------------------------|
B- ----------------------------------------------------|
G- ----------------------------------------------------|
D- -2----4----9----8-----------------------------------|
A- -2-x6-4-x6-7-x6-6-x6--------------------------------|
E- -0----0----0----0-----------------------------------|


 Chorus

e- (0)--(3)--(2)----(5)--------------------------------|
B- (0)---3---(2)---4/5---------------------------------|
G- -1----3-x6-3----4/5-x5------------------------------|
D- -2-x6-3----4-x6-4/5---------------------------------|
A- -2----1----4----2/3---------------------------------|
E- -0---------2----------------------------------------|


 Post-Chorus

e- (0)(0)---(0)(0)---(0)(0)---(0)(0)-------------------|
B- (0)(0)---(0)(0)---(0)(0)---(0)(0)-------------------|
G- (1)(1)---(1)(1)---(1)(1)---(1)(1)-------------------|
D- -2--2-----2--2-----2--2-----2--2--------------------|
A- -2--2-000-2--2-000-2--2-000-2--2-000----------------|
E- -0--0-----0--0-----0--0-----0--0--------------------|
 Verse 1

e- ------------------------|---------------------------|
B- ------------------------|---------------------------|
G- ------------------------|---------------------------|
D- -2--2-------------------|-2--2----2--2--------------|
A- -2--2-000---------------|-0--0----0--0--------------|
E- -0--0-------------------|---------------------------|


 Verse 2

e- ------------------------|---------------------------|
B- ------------------------|---------------------------|
G- ------------------------|-------4/9--9/14-----------|
D- -2--2-------------------|-2--2--2/7--9/14-----------|
A- -2--2-000---------------|-0--0----------------------|
E- -0--0-------------------|---------------------------|


 Bridge/Solo

e- ----------------------------------------------------|
B- ----------------------------------------------------|
G- ---0-------2-2--------------------------------------|
D- -2---2-0-0------------------------------------------|
A- ----------------------------------------------------|
E- ----------------------------------------------------|
pm  *   * * *

e- -------------17-------------------------------------|
B- -------------17-------------------------------------|
G- ----15----17-17-------------------------------------|
D- -14----16----16-------------------------------------|
A- ----------------------------------------------------|
ⓘ This is the 2nd version of guitar tab for 'Credit In The Straight World' by Hole, an alternative rock band formed in 1989 from Los Angeles, USA. They retired in 2012. Hole was known for their happy rock/pop music.

Other versions of Credit In The Straight World

Other alternative guitar chords and tabs for the song Credit in the straight world by Hole
Credit in The Straight WorldTabs

Almost there ...

Sign in to get your own page with links to favourite songs and more. You are just one click away...

Login with Facebook Login with Google