Log in

One click and you are in

Login with Facebook Login with Google

Why sign up and log in

Guitar Tabs Explorer
Hole bass tabs for Berry

Bass tabs

song: Berry
artist: Hole
written by: C. Love, E. Erlandson, J. Emery and C. Rue

standard tuning EADG
intro ("woah yeah..")
----------------
----------------
----------------
-5--0--5--0-0-0-


verse
----------------
----------------
----------------
3-3-3-3-3-3-3-0-


chorus ("when I die...")
---------------------------------
---------------------------------
---------------------------------
-5---5---5--5-5-3-3-3-0--0-3-0-3-
	last time in last chorus (very end)
	E-5---5---5--5-5-3/15

I still have yet to figure out the bridge(s) ("I wanna know...")

Megannnnnnnn  skrypr@cadvision.com

Almost there ...

Sign in to get your own page with links to favourite songs and more. You are just one click away...

Login with Facebook Login with Google