Log in

One click and you are in

Login with Facebook Login with Google

Why sign up and log in

Guitar Tabs Explorer
The Holdup tabs for Back then

Guitar tabs

The Holdup
Back Then
Confidence

standard tuning
Verse:

|--4---------3-------|                 |--33-|
|--6---------4-------|                 |--44-|
|--6-(x8)----5-(x8)--|                 |--55-|
|--6---------5-------|     end with    |--55-|
|--4---------3-------|                 |--33-|
|--------------------|                 |-----|


Chorus:

|--4---------3---------1---------4---------|
|--6---------4---------2---------4---------|
|--6-(x4)----5-(x4)----3-(x4)----4-(x4)----|
|--6---------5---------3---------6---------|
|--4---------3---------1---------6---------|
|--------------------------------4---------|

guitar 2
|4-4-4-4-4-4-4-4-4-4-4-4-1-1-1-1-4-4-4-4-4-4-4-4-4-4-4-4-3-3-3-3----|
|-------------------------------------------------------------------|
|-------------------------------------------------------------------|
|-------------------------------------------------------------------|
|-------------------------------------------------------------------|
|-------------------------------------------------------------------|


Bridge is the same as chorus

Great song, enjoy it!

Almost there ...

Sign in to get your own page with links to favourite songs and more. You are just one click away...

Login with Facebook Login with Google