Log in

One click and you are in

Login with Facebook Login with Google

Why sign up and log in

Guitar Tabs Explorer
Gary Hoey tabs for Peace pipe

Guitar tabs

Peace Pipe
by Gary Hoey
on the album Bug Alley
Tab by Sean Kasun (seank@u.arizona.edu)

Here's the key:

        ~ : Vibrato
        ^ : hammer/pull
        / : slide up
        \ : slide down
He starts out slowly with a fairly acoustic guitar:

|-------------------------------------------------------------------|
|---6--------6--------6--------6------------------------------------|
|-----5--------5--------5--------5----------------------------------|
|-------6~-------6~-------6~-------6~-------------------------------|
|-4--------4--------4--------4--------------------------------------|
|-------------------------------------------------------------------|

Then the guitar2 starts in, and the acoustic does something I haven't
figured out yet ;)

|-------------------------------------------------------------------|
|-------------------------------------------------------------------|
|------------------1^3^1--------------------------------------------|
|-1^3~---------(3)--------------------------------------------------|
|-------------------------------------------------------------------|
|-------------------------------------------------------------------|

Then the lead guitar starts in (we'll follow him the rest of the way):

|-----------------------------------|
|-----------------------------------|
|-8^10~-----10^8--------------------|
|----------------10^8--6^8^6--------|
|----------------------------8------|
|-----------------------------------|

|-------------------------------------------------------------------|
|-------------------------------------------------------------------|
|-------------5------------------5----------------------------------|
|---6-8-8-8-8---6^8----6-8-8-8-8---6--------------------------------|
|-8------------------8----------------8-6-8-8-8-8-6-8^6--(8^6)------|
|-------------------------------------------------------------------|

|----------------------------------------------------------------------|
|----------------------------------------------------------------------|
|-------------5------------------5-------------------------------------|
|---6-8-8-8-8---6^8----6-8-8-8-8---6-----------------------------------|
|-8------------------8----------------8-6-8-8-8-8-6-8^6--6-8-6-8-6-8^6-|
|----------------------------------------------------------------------|

|-------------------------------------------------------------8------------|
|---------------------------8-9--9-9-8----------8-9--9-9-8-11---11-9-8-----|
|-----5/8--8-8-8-8^10--8^10------------8\--8-10-------------------------8~-|
|---6----------------------------------------------------------------------|
|-8------------------------------------------------------------------------|
|--------------------------------------------------------------------------|

|------8-8-8----8~--11-9-8------------------------------------------|
|-9-11-------11------------11---------------------------------------|
|-------------------------------------------------------------------|
|-------------------------------------------------------------------|
|-------------------------------------------------------------------|
|-------------------------------------------------------------------|

That's as far as I've gotten... I'll post more if I get back to it ;)

-Sean Kasun

Almost there ...

Sign in to get your own page with links to favourite songs and more. You are just one click away...

Login with Facebook Login with Google