Log in

One click and you are in

Login with Facebook Login with Google

Why sign up and log in

Guitar Tabs Explorer
Gary Hoey tabs for Motown fever

Guitar tabs

Motown Fever - By Gary Hoey (instrumental)
from the album Animal Instinct
Tab by Sean Kasun (seank@u.arizona.edu)

Someone actually requested that I tab this out.

It's obvious that Gary Hoey loves to tune down.. however I don't see the
point in this song, so I'll tab this for regular tuning..

if you want to play a'la gary, tune down and play everything
one step higher :>

Key:

h   Hammer
p   Pull
^() bend to note in brackets
'   fast bend (half step)
()v release.
\   slide down
/   slide up

Here's the rhythm guitar (roughly), it's played throught the song:
|------------------------------------------------------|
|--8h9---9--9----9--9--8----------8-6-------8-8-9--8---|
|o-8-----8--8----8--8--8-8-8------8-6-6-6-6h8-8-8--8--o|
|o-8h10--10-10---10-10-8-8-8-8h10-8-6-6-6-6h8-8-10-8--o|
|------------------------------------------------------|
|------------------------------------------------------|

And lead...
|------------------------------------------------------------------|
|-16---------------------------------------------------------------|
|----15^(17)~--15^(17)v15~--13----13----15'-13---------------------|
|------------------------------15----15--------15p13\11--/15-13-15-|
|------------------------------------------------------------------|
|------------------------------------------------------------------|

|--------------------------------------------------------------------|
|---------------16---------------------------------------------------|
|-------13-15'-----15~---13----13----15'-13--------------------------|
|-13h15---------------------15----15--------15p13\11--/15-13-15------|
|--------------------------------------------------------------------|
|--------------------------------------------------------------------|

|--------------------------------------------16-18---20-18-16--------|
|-16-18------16-18---------------------16h18-------------------------|
|-------------------15-13--------------------------------------------|
|---------------------------15-13-15---------------------------------|
|--------------------------------------------------------------------|
|--------------------------------------------------------------------|

|---------------------------------------------------|
|-16h18-16------------------------------------------|
|-----------17p15----------------------------17-17--|
|-----------------18p15-18-18\---18p15-18-18--------|
|---------------------------------------------------|
|---------------------------------------------------|

|-16p15-15----------------------------16p15--------------------------|
|----------16-16~---------------------------16-----------------------|
|-------------------15-15-15-15-17~------------15--------------------|
|-------------------------------------------------15/18~----15-18-18-|
|--------------------------------------------------------------------|
|--------------------------------------------------------------------|

|-16p15------------------------16p15-------------16---------19^(20)-19'-19'-|
|-------16----16h18-16---------------16----16-18------18-16-----------------|
|----------15----------17---17----------15----------------------------------|
|---------------------------------------------------------------------------|
|---------------------------------------------------------------------------|
|---------------------------------------------------------------------------|

|-19^(20)----(20)-(20)-18~--18----16----18-16------------------------|
|------------------------------18----18--------18p16-----18-16-18----|
|----------------------------------------------------18--------------|
|--------------------------------------------------------------------|
|--------------------------------------------------------------------|
|--------------------------------------------------------------------|

|-------------20~--20'-20-18-16----------------19'-18-16----------------|
|-16----16-18-------------------18p16----16-18------------------16------|
|----17-------------------------------17-----------------15^(17)---v15--|
|-----------------------------------------------------------------------|
|-----------------------------------------------------------------------|
|-----------------------------------------------------------------------|

|---------------19^(20)--16-15---------------------------------------|
|------------------------------16------------------------------------|
|-15p13----13---------------------15---------------------------------|
|-------15---------------------------18-17-15-------15~\13-----------|
|---------------------------------------------18-15--------13\11-----|
|--------------------------------------------------------------------|

|------------------------------------------------------------|
|------------------------------------------------------------|
|------------------------------------------------------------|
|---------------------------------------13-13----13h15-13----|
|----------11--11-11-11h13p11--13-11h15-------15----------15-|
|-13-11h13---------------------------------------------------|

|------------------------------------------------------------|
|------------------------------------------------------------|
|--------------------13----13-15-15^(17)-13--13-13-15^(17)~--|
|-13-13-13----13h15-----15-----------------------------------|
|----------15------------------------------------------------|
|------------------------------------------------------------|

this song is like one big solo.. very little repeats.

-sean

Almost there ...

Sign in to get your own page with links to favourite songs and more. You are just one click away...

Login with Facebook Login with Google