Log in

One click and you are in

Login with Facebook Login with Google

Why sign up and log in

Guitar Tabs Explorer
Gary Hoey tabs for Karma climb

Guitar tabs

Karma Climb by Gary Hoey
From the album Bug Alley
Tab by Sean Kasun

First guitar comes in...
|-------|--------------------------------------------------|
|-------|--------------------------------------------------|
|-------|o------------------------------------------------o|
|-13-\--|o------------------------------------------------o|
|-11-\--|--------------------------------------2~--4~------|
|-------|---2h4-4-4---4-2h4-4-4---4-2h4-4-4--4-------------|

We do that, and a second guitar slides in doing the same thing, and then
we have a third guitar with the main harmony:

|---------------------------------------------------|
|---------------------------------------------------|
|---------8~----------------------8-----------------|
|----9h11-----11-9/11\9------9h11----11-9h11p9------|
|-11----------------------11-------------------11---|
|---------------------------------------------------|

|-----------------------------------------------------------|
|-----------------------------------------------------------|
|---------8---------------------------8--11-----------------|
|----9h11----11--9--11p9---------9h11-------11--9h11p9------|
|-11---------------------11---11-----------------------11---|
|-----------------------------------------------------------|

|---------------------------------------------------|
|-----------------9~-------------9------------------|
|---------8--11-8----11---8h11p8---11---------------|
|----9h11-----------------------------11-9h11p9-----|
|-11--------------------------------------------11--|
|---------------------------------------------------|

|------------------------------------------------------------------|
|------------------------------------------------------------------|
|---------8--11----------------------------------------------------|
|----9h11-------11--9-11--9h11p9--------9h11-11'-11'-11'-9h11p9----|
|-11-----------------------------11--11-------------------------11-|
|------------------------------------------------------------------|

|----------------------------------------|
|----------------------------------------|
|---------11~---9-8----------8~----------|
|----9h11-----------11--11p9----11~-9~---|
|-11-------------------------------------|
|----------------------------------------|

|----------------------------------------|
|----------------------------------------|
|------8--11~---9-8----------8~----------|
|-9-11--------------11--11p9----11~-9~---|
|----------------------------------------|
|----------------------------------------|

Play entire thing again.

Then he goes into a mini-solo and then to some other wierd interlude
stuff which I'll tab soon.

-Sean

Almost there ...

Sign in to get your own page with links to favourite songs and more. You are just one click away...

Login with Facebook Login with Google