Log in

One click and you are in

Login with Facebook Login with Google

Why sign up and log in

Guitar Tabs Explorer
Gary Hoey tabs for Desire

Guitar tabs

Desire - By Gary Hoey
From the album Bug Alley
Transcribed by Sean Kasun (seank@u.arizona.edu)

This (as you know) is based on Jesu Joy of Man's Desiring by J.S. Bach

Tune down a half step to be in tune with the record.

|----------------------12-------15-14-15----------------|
|----------12-15-13-13----15-15----------15-12-------12-|
|----12-14-------------------------------------12-14----|
|-------------------------------------------------------|
|-------------------------------------------------------|
|-------------------------------------------------------|

|-------12----------------------------------------------|
|-13-15----15-13-12----12----------------------13-12----|
|-------------------14----12-11-12-14----11-14-------14-|
|-------------------------------------12----------------|
|-------------------------------------------------------|
|-------------------------------------------------------|

|----------------------12-------15-14-15----------------|
|-12-------12-15-13-13----15-15----------15-12-------12-|
|----12-14-------------------------------------12-14----|
|-------------------------------------------------------|
|-------------------------------------------------------|
|-------------------------------------------------------|

|-------------------------------------15----------------|
|----15-13-12-------------------12-15----15-12----------|
|-------------14-12----12-11-12----------------12-------|
|-14----------------12----------------------------------|
|-------------------------------------------------------|
|-------------------------------------------------------|


-Sean Kasun

Almost there ...

Sign in to get your own page with links to favourite songs and more. You are just one click away...

Login with Facebook Login with Google