Log in

One click and you are in

Login with Facebook Login with Google

Why sign up and log in

Guitar Tabs Explorer
Hochzeit tabs for Minnie

Guitar tabs

from jan fuhrman & jan christoph lau psycho5@01019freenet.de

album:Hochzeit, song:Minne, artist: Subway to Sally
SVBWAY TO SALLY
MINNE TAB (adepted)
By Ingo Hampf/Eric Hecht
Lyrics by Bodenski
Melodie

E---------------|-----------------------------------------|
H---------------|-----------------------------------------|
G---------------|-----------------------------------------|
D---------------|-----------------------7-5-----5---------|
A---5--5-5-5... |--5--7-8--8-8--5--5-5--------8----7------|
D---------------|-----------------------------------------|

E-------------------------------|
H-------------------------------|
G-------------------------------|
D----------5--------------------|
A--5-7-8----7-8-5-7-5----5-5----|
D---------------------10--------|

E------------------------------|
H------------------------------|
G------------------------------|
D-7-8-7-8-5-7-5----5-----------|
A----------------8----7-7------|
D------------------------------|

E-------------------------------------|
H-------------------------------------|
G-------------------------------------|
D---------5---------------7-5---------|
A-8-7-5-----8-7--5-7-8-8-------7------|
D-------------------------------------|

E------------------------------|
H------------------------------|
G------------------------------|
D--------5---------------------|
A-5-7-8---7-8--5--7-5------5-5-|
D----------------------10------|





Strophe

   A chord diagramF5F5  A chord diagramG5G5  A chord diagramFF           A chord diagramC majorC                  A chord diagramD5D5 A chord diagramC majorC  A chord diagramD5D5
E---|---|-5--3---3-----|----------------------------|---|
H-6-|-8-|-6----6----5--|------------------3--1--3-  |---|
G-5-|-7-|-5---------5--|--2-3-5-2-7-2--2--0--3--2---|---|
D-3-|-5-|-0---------5--|--3-5-7-0---5--0--2--0--0---|---|
A---|---|-----------3--|----------3----------3------|---|
D---|---|--------------|----------------------------|-0-|

   A chord diagramF5F5                      A chord diagramFF
E---|----3-----3- |--5-5h6p5---3--|
H-6-|---3-3---3-- |--6-------6----|
G-5-|--0---0-0--- |--5------------|
D-3-|-0-----0-----|--0------------|
A---|-------------|---------------|
D---|-------------|---------------|


E--------8--8--8---8-----1-0--|
H-5-6-8--8--8--8---8----------|
G--------9--9--9---9----------|
D--------10-10-10--10----3-2--|
A-----------------------------|
D-----------------------------|


Hier kommt .......


E--1------------------------------|--6-----6-------5h6p5-------|
H--------1-----3-----1h3-1-3------|-----10----8----------8-6-8-|
G-----2-----0-----2--0---2-2------|--8-------------7-----------|
D--0-----2-----3-----2-----0----- |--8--------0----7-----------|
A--------------------3---0--------|--6-------------5-----------|
D---------------------------------|----------------------------|

     A chord diagramC majorC			A chord diagramBB           A chord diagramC majorC        d
E------------------|---------|-3------|---0--1--5/3-|
H-5----------------|-------3-|---6--5-|-3----3------|
G-5--5-3-2---------|-------3-|------5-|------2------|
D-5---------5-3--  |-5-3---3-|------5-|------0------|
A-3----------------|-------1-|------3-|-------------|
D------------------|---------|--------|-------------|

E-3-1-0-|-1-0-1-----------------------------|
H-------|-----------1-----3-----1h3-1-3-----|
G-------|--------2-----0-----2--0---2-2-----|
D-------|-3-2-0-----2-----3-----2-----0-----|
A-------|-----------------------3---0-------|
D-0-----|---------------------------------0-|

Almost there ...

Sign in to get your own page with links to favourite songs and more. You are just one click away...

Login with Facebook Login with Google