Log in

One click and you are in

Login with Facebook Login with Google

Why sign up and log in

Guitar Tabs Explorer
The Hives tabs for Walk idiot walk

Guitar tabs

Album: Tyranousaurous hives

   Main Riff and chorus
E[-----------------------]
A[-9--7--10--9---14--15--]
D[-9--7---9--9---14--14--]
G[-9--7---9--9---14--14--]
B[-----------------------]
E[-----------------------]
do a up stroke only on the
last chord

     Verse
E[-0-0-0-0-0-0-0-0-0-0-0-----]
A[-3-3-3-2-2-2-2-1-1-1-0-----]
D[---------------------------]
G[---------------------------]
B[---------------------------]
E[---------------------------]


End of chorus

E[------------------------------------]
A[------------------------------------]
D[------------------------------------]
B[--5-5-5-5-4-4-4-4-5-5-5-5-----------]
G[--5-5-5-5-4-4-4-4-5-5-5-5-4brbrbrbr-]
E[--3-3-3-3-2-2-2-2-3-3-3-3-----------]

Almost there ...

Sign in to get your own page with links to favourite songs and more. You are just one click away...

Login with Facebook Login with Google