Log in

One click and you are in

Login with Facebook Login with Google

Why sign up and log in

Guitar Tabs Explorer
The Hives tabs for The stomp

Guitar tabs

Song title: The Stomp
as it appears on: BARELY LEGAL

tabbed by Fabian Rost (frostus@gmx.net)
                             7x
A chord diagramE MajorE||---------------------------||--------------------------|
A chord diagramBB||---------------------------||--------------------------|
A chord diagramG+G||*-------------------------*||--------------------------|
A chord diagramD MajorD||*-------------------------*||--------------------------|
A chord diagramA augmentedA||---3h-0--0--0----0--0--0---||--3h-0--0--0--3h-0--0--0--|
A chord diagramE MajorE||---------------------------||--------------------------|


                            3x
|---------------------------||--------------------------|
|---------------------------||--------------------------|
|*-------------------------*||--------------------------|
|*--3h-0--0--0----0--0--0--*||--3h-0--0--0--3h-0--0--0--|
|---------------------------||--------------------------|
|---------------------------||--------------------------|


                            4x
|---------------------------||--0--------1--------|--5--------3--------|
|---------------------------||--------------------|--------------------|
|*-------------------------*||--------------------|--------------------|
|*-------------------------*||--------------------|--------------------|
|---3h-0--0--0----0--0--0---||--------------------|--------------------|
|---------------------------||--------------------|--------------------|


--8--------7--------|--10--------12--------||
--------------------|----------------------||
--------------------|----------------------||
--------------------|----------------------||
--------------------|----------------------||
--------------------|----------------------||


OK, thats the beginning, rest of the song is nearly the same, you can easily
get it by listening.
Questions, comments, corrections: frostus@gmx.net

Almost there ...

Sign in to get your own page with links to favourite songs and more. You are just one click away...

Login with Facebook Login with Google