Log in

One click and you are in

Login with Facebook Login with Google

Why sign up and log in

Guitar Tabs Explorer
The Hives chords for Main offender

Guitar chords

Title:      Main Offender
Album:      Vini Vidi Veci
Tabbed By:  Lee and Daniel


Verse:

E:-----------------------------------------------
B:-----------------------------------------------
G:---------12-12-x-------10----------------------
D:-12-12-x-12-12-x-8-8-8-10-10-10-11-12----------
A:-12-12-x-10-10-x-8-8-8--8-10-10-11-12----------
e:-10-10-x---------6-6-6-----8--8--9-10----------

E:-----------------------------------------------
B:-----------------------------------------------
G:---------12-12-x---10---12-10------------------
D:-12-12-x-12-12-x-8-10-8-12-10-10-11-12---------
A:-12-12-x-10-10-x-8--8-8-10--8-10-11-12---------
e:-10-10-x---------6----6--------8--9-10---------


Chorus: Fast strumming (not shown)

E:-----------------------------------------------
B:-----------------------------------------------
G:-----------------------------------------------
D:-8-10-11---------------------------------------
A:-8-10-11---------------------------------------
e:-6--8--9---------------------------------------

ⓘ Guitar chords for 'Main Offender' by The Hives, a punk rock band formed in 1993 from Fagersta, Sweden. The Hives is known for their theatrical rock/pop music.

Almost there ...

Sign in to get your own page with links to favourite songs and more. You are just one click away...

Login with Facebook Login with Google