Log in

One click and you are in

Login with Facebook Login with Google

Why sign up and log in

Guitar Tabs Explorer
The Hives tabs for Inspection wise 1999

Guitar tabs

song: inspection wise 1999
band: the hives
album: veni, vidi, vicious
tabbed by: Joel (j_sorensson@hotmail.com)

The little chorus riff sounds wrong, but I wont bother
tabbing it right.
intro guitar 1:
e-------3-------------------------------------------------
b-x-x-x---5-3-5-----------------------------x-x-x-3-5-3-5-
g---------------x-x-x-2-0---0-x-x-x-2-0---0---------------
d-------------------------2-------------2-----------------
a---------------------------------------------------------
e---------------------------------------------------------


verse:
e-------------------------------
b-------------------------------
g-9--987----7-------99----77----
d-9--987--9-7-7--77-99-99-77-77-
a-7--765--9-5-7--77-77-99-55-77-
e---------7---5--55----77----55-


chorus:   *=play 8 times
e-------------
b--------*----
g--*--*-9---*-
d-9--9--9--7--
a-9--9--7--7--
e-7--7-----5--

little riff during chorus:
e---------------------------------------------
b---------------------------------------------
g----------------------------------2-5-2-5-2--
d-----------------------2-5-2-5-2------------- something like this.
a-2-5-2-5-2--2-5-2-5-2------------------------
e---------------------------------------------

.action. comments? corrections? questions? pics of cheese?
mail me.

Other versions of Inspection Wise 1999

Inspection wise 1999Chords

Almost there ...

Sign in to get your own page with links to favourite songs and more. You are just one click away...

Login with Facebook Login with Google