Log in

One click and you are in

Login with Facebook Login with Google

Why sign up and log in

Guitar Tabs Explorer
The Hives chords for Inspection wise 1999

Guitar chords

Album: Veni Vidi Vicious
Tabbed By: C.G. Frankenstein (o_p_i_v_y@hotmail.com)

(Note:  This is the power chord guitar only - there is a little lead riff
played by another guitar in parts of the song that I haven't figured out
yet.)


Verse:
e--------------------------------------------------
B--------------------------------------------------
G--9-----9-8-7-------7------------99------77-------  repeat
D--9-----9-8-7----9--7--7-----77--99--99--55--77---
A--7-----7-6-5----9--5--7-----77--77--99--55--77---
E-----------------7-----5-----55------77------55---


Chorus:
e--------------------------------------------
B--------------------------------------------
G--------------------999999999---------------
D--99999999999999999-999999999-777777777-----   repeat
A--99999999999999999-777777777-777777777-----
E--77777777777777777-----------555555555-----

(timing not exactly as shown - listen to the song and figure it out)

Other versions of Inspection Wise 1999

Inspection wise 1999Tabs

Almost there ...

Sign in to get your own page with links to favourite songs and more. You are just one click away...

Login with Facebook Login with Google