Log in

One click and you are in

Login with Facebook Login with Google

Why sign up and log in

Guitar Tabs Explorer
The Hives tabs for Hate to say i told you so

Guitar tabs with lyrics

Corrected by: James Hauschka (Original done by: J. Sorensor, First Correctio=
ns done by M. Lessiter and N. Bhatti)

Standard Tuning (eadgbe)

This is how I play the song. This is all my work.
INTRO:

Gtr.1
e ||------------------------------------||
b ||------------------------------------||
g ||o----------------------------------o||x4
d ||o-7-7-7--5-5-5-5--10-10-10---------o||
a ||--5-5-5--3-3-3-3--8--8--8--8-8-8-8--||
e ||---------------------------6-6-6-6--||

Gtr.2(The third time Gtr.1 play come in)
e ||-----|--------------||
b ||-----|--------------||
g ||-----|--------------||
d ||--7--|--7-7-7-7-7/--||
a ||--5--|--5-5-5-5-5/--||
e ||-----|--------------||

Both Guitars
e ||------------------------------------||
b ||------------------------------------||
g ||o----------------------------------o||x4
d ||o-7-7-7--5-5-5-5--10-10-10---------o||
a ||--5-5-5--3-3-3-3--8--8--8--8-8-8-8--||
e ||---------------------------6-6-6-6--||

Gtr. 1 out
Gtr. 2
e ||-----||
b ||-----||
g ||-----||Repeated many times
d ||--5--||
a ||--3--||
e ||-----||
   PM...

VERSES:

Both Guitars
e ||------------------------------------||
b ||------------------------------------||
g ||o----------------------------------o||x8
d ||o-7-7-7--5-5-5-5--10-10-10---------o||
a ||--5-5-5--3-3-3-3--8--8--8--8-8-8-8--||
e ||---------------------------6-6-6-6--||

CHORUS:

Gtr.1
e ||-----------------------------------||
b ||-----------------------------------||
g ||-----------------------------------||
d ||-----------------------------------||
a ||--5-5-5-5-5-5-5-5-5-5-5-5-5-5-5-5--||
e ||--3-3-3-3-3-3-3-3-3-3-3-3-3-3-3-3--||

Gtr.2
e ||--------------------------------------------------||
b ||--------------------------------------------------||
g ||--------------------------------------------------||(could be even highe=
d ||--10-10-10-10-10-10-10-10-10-10-10-10-10-10-10-10-|| r, hard to hear)
a ||--8--8--8--8--8--8--8--8--8--8--8--8--8--8--8--8--||
e ||--------------------------------------------------||

Both Guitars
e ||------------------------------------||
b ||------------------------------------||
g ||o----------------------------------o||x2
d ||o-7-7-7--5-5-5-5--10-10-10---------o||
a ||--5-5-5--3-3-3-3--8--8--8--8-8-8-8--||
e ||---------------------------6-6-6-6--||

Gtr.1
e ||-----------------------------------||
b ||-----------------------------------||
g ||-----------------------------------||
d ||-----------------------------------||
a ||--5-5-5-5-5-5-5-5-5-5-5-5-5-5-5-5--||
e ||--3-3-3-3-3-3-3-3-3-3-3-3-3-3-3-3--||

Gtr.2
e ||--------------------------------------------------||
b ||--------------------------------------------------||
g ||--------------------------------------------------||
d ||--10-10-10-10-10-10-10-10-10-10-10-10-10-10-10-10-||
a ||--8--8--8--8--8--8--8--8--8--8--8--8--8--8--8--8--||
e ||--------------------------------------------------||

Basically it's just those three parts. It looks like much more because of th=
e two guitars(when alot=20
of people only transcribe one). But that's how I play it. It's the first tab=
 i put out online and i tabbed like a couple of minutes ago. I couldn't tab=20=
the outro because it uses some effects and i broke my RP-2000 so i can't fin=
d out what.
ⓘ Guitar tab for 'Hate To Say I Told You So' by The Hives, a punk rock band formed in 1993 from Fagersta, Sweden. The Hives is known for their theatrical rock/pop music.

Other versions of Hate To Say I Told You So

Hate to say I told you soChords
Hate to say I told you so1Tabs

Almost there ...

Sign in to get your own page with links to favourite songs and more. You are just one click away...

Login with Facebook Login with Google