Log in

One click and you are in

Login with Facebook Login with Google

Why sign up and log in

Guitar Tabs Explorer
Hippo Campus bass tabs for Where to now

Bass tabs with lyrics

Song has the same patter throughout entire song.

G|-------9-9-9-9-9-9-9-7-5-5-5-5-5--------------------------------------------------|
D|-7-7------------------------------------------------------------------------------|
A|-----3----------------------------------------------------------------------------|
E|----------------------------------------------------------------------------------|

Rough pick patter is X X X XXX XX X X X XX XXXX


Verse 1: Nathan:
G|-------9-9-9-9-9-9-9-7-5-5-5-5-5--------------------------------------------------|
D|-7-7------------------------------------------------------------------------------|
A|-----3----------------------------------------------------------------------------|
E|----------------------------------------------------------------------------------|

I finally found my crocodile drawings

They were under your bed

At least that's what my dream said

None of them were green

Because none of them are

Do you think I'm obscene?

That's what I heard in my dream


Chorus: Nathan:
G|-------9-9-9-9-9-9-9-7-5-5-5-5-5--------------------------------------------------|
D|-7-7------------------------------------------------------------------------------|
A|-----3----------------------------------------------------------------------------|
E|----------------------------------------------------------------------------------|

And you go 'round talking 'bout everything that happened

Or could ever be a possibility, and I'm just thinking

You're so loud talking 'bout everything that happened

Or could ever be a possibility, and I'm just thinking

You're allowed, talking 'bout everything that happened

Or could ever be a possibility, and I'm just thinking

Where to now?


Verse 2: Nathan:
G|-------9-9-9-9-9-9-9-7-5-5-5-5-5--------------------------------------------------|
D|-7-7------------------------------------------------------------------------------|
A|-----3----------------------------------------------------------------------------|
E|----------------------------------------------------------------------------------|

I'm on a binge of the benders that you hated

So I walked into your fridge

At least that's what my dream said

Can I get an inch, or will you take a mile?

I'm looking ahead

At least that's what my dream said


Chorus: Nathan:
G|-------9-9-9-9-9-9-9-7-5-5-5-5-5--------------------------------------------------|
D|-7-7------------------------------------------------------------------------------|
A|-----3----------------------------------------------------------------------------|
E|----------------------------------------------------------------------------------|

And you go 'round talking 'bout everything that happened

Or could ever be a possibility, and I'm just thinking

You're so loud talking 'bout everything that happened

Or could ever be a possibility, and I'm just thinking

You're allowed, talking 'bout everything that happened

Or could ever be a possibility, and I'm just thinking

Where to now?
ⓘ Bass guitar tab for 'Where To Now' by Hippo Campus, an indie pop artist from USA. Hippo Campus was born in 2013.

Almost there ...

Sign in to get your own page with links to favourite songs and more. You are just one click away...

Login with Facebook Login with Google