Log in

One click and you are in

Login with Facebook Login with Google

Why sign up and log in

Guitar Tabs Explorer
Hippo Campus bass tabs for Western kids

Bass tabs

Hippo Campus - Western Kids
4/4 - 100 BPM
Standard tuning (EADG)


Intro

G|-------------------------------------------------|-------------------------------------------------|
D|-------------------------------------------------|-------------------------------------------------|
A|-------------------------------------------------|-------------------------------------------------|
E|-------------------------------------------------|-------------------------------------------------|
  1 e + a 2 e + a 3 e + a 4 e + a  1 e + a 2 e + a 3 e + a 4 e + a

G|-------------------------------------------------|-------------------------------------------------|
D|-------------------------------------------------|-------------------------------------5h-8--------|
A|-6.-------------------6.----6.----------------5--|-6.-------------------6.----6.-------------------|
E|-------------------------------------------------|-------------------------------------------------|
  1 e + a 2 e + a 3 e + a 4 e + a  1 e + a 2 e + a 3 e + a 4 e + a

G|-------------------------------------------------|-------------------------------------------------|
D|-------------------------------------------------|-------------------------------------------------|
A|-------------------------------------------------|-------------------------------------------------|
E|-6.-------------------6.----6.-------------------|-6.-------------------6.----6.-------------6h-8--|
  1 e + a 2 e + a 3 e + a 4 e + a  1 e + a 2 e + a 3 e + a 4 e + a

G|-------------------------------------------------|-------------------------------------------------|
D|-------------------------------------------------|-------------------------------------5h-8--------|
A|-6.-------------------6.----6.----------------5--|-6.-------------------6.----6.----6--------------|
E|-------------------------------------------------|-------------------------------------------------|
  1 e + a 2 e + a 3 e + a 4 e + a  1 e + a 2 e + a 3 e + a 4 e + a


Verse 1

G|-------------------------------------------------|-------------------------------------------------|
D|-------------------------------------------------|-------------------------------------------------|
A|-------------------------------------------------|-------------------------------------------------|
E|-6.-------------------6.----6.-------------------|-6.-------------------6.----6.-------------------|
  1 e + a 2 e + a 3 e + a 4 e + a  1 e + a 2 e + a 3 e + a 4 e + a

G|-------------------------------------------------|----------------------8.-------------------------|
D|-------------------------------------------------|-------------------------------------3h-5--------|
A|-6.-------------------6.----6.-------------------|-6.-------------------------6.-------------------|
E|-------------------------------------------------|----------------------------------6--------------|
  1 e + a 2 e + a 3 e + a 4 e + a  1 e + a 2 e + a 3 e + a 4 e + a

G|-------------3.----------------------------------|-------------------------------------------------|
D|-------------------------------------------------|-------------------------------------------------|
A|-1.-------------------1.----1.-------------------|-1.-------------------1.----1.-------------------|
E|-------------------------------------------1--3--|----------------------------------------------6--|
  1 e + a 2 e + a 3 e + a 4 e + a  1 e + a 2 e + a 3 e + a 4 e + a

G|-------------------------------------------------|-------------------------------------------------|
D|-------------------------------------------------|-------------------------------------------------|
A|-6.-------------------6.----6.----------------5--|-6.-------------------6.----6.-------------------|
E|-------------------------------------------------|-------------------------------------------------|
  1 e + a 2 e + a 3 e + a 4 e + a  1 e + a 2 e + a 3 e + a 4 e + a

G|-------------3-----------------------------------|-------------------------------------------3-----|
D|-------------------------------------------------|-------------------------------------3h-5-----5--|
A|-1.-------------------1.----1.-------------------|-1.-------------------1.----1.-------------------|
E|----------------------------------------1--3p-1--|-------------------------------------------------|
  1 e + a 2 e + a 3 e + a 4 e + a  1 e + a 2 e + a 3 e + a 4 e + a

G|-------------------------------------------------|-------------------------------------5p-3--------|
D|-------------------------------------------------|-------------------------------------------5p-3--|
A|-6.-------------------6.----6.----------------5--|-6.-------------------6.----6.-------------------|
E|-------------------------------------------------|-------------------------------------------------|
  1 e + a 2 e + a 3 e + a 4 e + a  1 e + a 2 e + a 3 e + a 4 e + a

G|-------------------------------------------------|-------------------------------------------------|
D|-------------------------------------------------|-------------------------------------------------|
A|-1.-------------------1.----1.-------------------|-1.-------------------1.----1.-------------------|
E|-------------------------------------------1--3--|-------------------------------------------------|
  1 e + a 2 e + a 3 e + a 4 e + a  1 e + a 2 e + a 3 e + a 4 e + a

G|-------------------------------------------------|-------------------------------------------------|
D|-------------------------------------------------|-------------------------------------------------|
A|-6.-------------------6.----6.----------------5--|-6.-------------------6.----6.-------8.----8\----|
E|-------------------------------------------------|-------------------------------------------------|
  1 e + a 2 e + a 3 e + a 4 e + a  1 e + a 2 e + a 3 e + a 4 e + a


Chorus

 2/4            4/4
G|-------------------------|-------------------------------------------------|-------------------------------------------------|
D|-------------------------|----------8-----------------------8--------------|----------8--------------------12----------10----|
A|-------------------------|-6-----------------------6-----------------------|-6-----------------------10----------8-----------|
E|-------------------------|-------------------6-----------------------6-----|-------------------6-----------------------------|
  1 e + a 2 e + a  1 e + a 2 e + a 3 e + a 4 e + a  1 e + a 2 e + a 3 e + a 4 e + a

G|-------------------------------------------------|-------------------------------------------------|
D|----------8-----------------------8--------------|----------8--------------------12----------10----|
A|-6-----------------------6-----------------------|-6-----------------------10----------8-----------|
E|-------------------6-----------------------6-----|-------------------6-----------------------------|
  1 e + a 2 e + a 3 e + a 4 e + a  1 e + a 2 e + a 3 e + a 4 e + a

G|-------------------------------------------------|-------------------------------------------------|
D|----------8-----------------------8--------------|----------8--------------------------------------|
A|-6-----------------------6-----------------------|-6-----------------------6-----------------------|
E|-------------------6-----------------------6-----|-------------------6-----------------8-----------|
  1 e + a 2 e + a 3 e + a 4 e + a  1 e + a 2 e + a 3 e + a 4 e + a

G|-------------------------------------------------|-------------------------------------------------|
D|-------------------------------------------------|-------------------------------12----------10----|
A|-------------------------5--6--------5--6--------|-------------------------10----------8-----------|
E|-6--------6-----6--------------------------------|-6--------6-----6--/--10-------------------------|
  1 e + a 2 e + a 3 e + a 4 e + a  1 e + a 2 e + a 3 e + a 4 e + a

              /  3  \
G|-------------------------------------------------|-------------------------------------------------|
D|-------------------------------------------------|-------------------------------------------------|
A|-6--------6.-------------6---6---6---6.----5.----|-6--------6.-------------10----------8-----------|
E|-------------------6-----------------------------|-------------------6/-------------8-----------6--|
  1 e + a 2 e + a 3 e + a 4 e + a  1 e + a 2 e + a 3 e + a 4 e + a

              /  3  \
G|-------------------------------------------------|-------------------------------------------------|
D|-------------------------------------------------|-------------------------------12----------10----|
A|-6--------6.-------------6---6---6---6.----5.----|-6--------6.-------------10----------8-----------|
E|-------------------6-----------------------------|-------------------6/----------------------------|
  1 e + a 2 e + a 3 e + a 4 e + a  1 e + a 2 e + a 3 e + a 4 e + a

              /  3  \
G|-------------------------------------------------|-------------------------------------------------|
D|-------------------------------------------------|-------------------------------------------------|
A|-6--------6.-------------6---6---6---6.----5.----|-6--------6.-------------6-----------3-----------|
E|-------------------6-----------------------------|-------------------6--------------3-----------1--|
  1 e + a 2 e + a 3 e + a 4 e + a  1 e + a 2 e + a 3 e + a 4 e + a

G|-------------------------------------------------|-------------------------------------------------|
D|-------------------------------------------------|-------------------------------------------------|
A|-------------------------5--6--------5--6--------|-------------------------------------------------|
E|-6--------6--------------------------------------|-6.-------6.-------6.----------------------------|
  1 e + a 2 e + a 3 e + a 4 e + a  1 e + a 2 e + a 3 e + a 4 e + a


Verse 2

  ^                         ^
G|-15----------------------------------------------|-15----------------------------------------------|
D|-------------------------------------------------|-------------------------------------------------|
A|-17----------------------------------------------|-17----------------------------------------------|
E|-15----------------------------------------------|-15----------------------------------------------|
  1 e + a 2 e + a 3 e + a 4 e + a  1 e + a 2 e + a 3 e + a 4 e + a

  ^                         ^            ^
G|-12----------------------------------------------|-12----------------------12----------------------|
D|-------------------------------------------------|-------------------------------------------------|
A|-13----------------------------------------------|-13----------------------13----------------------|
E|-11----------------------------------------------|-11----------------------11----------------------|
  1 e + a 2 e + a 3 e + a 4 e + a  1 e + a 2 e + a 3 e + a 4 e + a

  ^
G|-7-----------------------------------------------|-L-----------------------------------------------|
D|-------------10----------------------------------|-L-----------------------------------------------|
A|-8-----------------------------------------------|-L-----------------------------------------------|
E|-6-----------------------------------------------|-L-----------------------------------------------|
  1 e + a 2 e + a 3 e + a 4 e + a  1 e + a 2 e + a 3 e + a 4 e + a

  ^
G|-12----------------------------------------------|-L-----------------------------------------------|
D|-------------------------------------------------|-------------------------------------------------|
A|-13----------------------------------------------|-L-----------------------------------------------|
E|-11----------------------------------------------|-L-----------------------------------------------|
  1 e + a 2 e + a 3 e + a 4 e + a  1 e + a 2 e + a 3 e + a 4 e + a

G|-------------------------------------------------|-------------------------------------------------|
D|-------------------------------------------------|-------------------------------------------------|
A|-------------1--------1.----1.----1.----1.-------|----------------------1.----1.----1.----1.-------|
E|-------------------------------------------------|-------------------1-----------------------------|
  1 e + a 2 e + a 3 e + a 4 e + a  1 e + a 2 e + a 3 e + a 4 e + a

G|-------------------------------------------------|-------------------------------------------------|
D|-------------------------------------------------|-------------------------------------------------|
A|-------------6--------6.----6.----6.----6.-------|-------------6--------6.----6.----6.----6.-------|
E|-------------------------------------------------|-------------------------------------------------|
  1 e + a 2 e + a 3 e + a 4 e + a  1 e + a 2 e + a 3 e + a 4 e + a

G|-------------------------------------------------|-------------------------------------------------|
D|-------------------------------------------------|-------------------------------------------------|
A|-------------1--------1.----1.----1.----1.-------|-------------1--------1.----1.----1.----1.-------|
E|-------------------1-----------------------------|-------------------------------------------------|
  1 e + a 2 e + a 3 e + a 4 e + a  1 e + a 2 e + a 3 e + a 4 e + a

G|-------------------------------------------------|-------------------------------------------------|
D|-------------------------------------------------|-------------------------------------------------|
A|-------------6--------6.----6.----6.----6.-------|-------------6--------6.----6.----6.----8p-6.----|
E|-------------------------------------------------|----------6--------------------------------------|
  1 e + a 2 e + a 3 e + a 4 e + a  1 e + a 2 e + a 3 e + a 4 e + a


Chorus

 2/4            4/4
G|-------------------------|-------------------------------------------------|-------------------------------------------------|
D|-------------------------|-------------------------------------------------|-------------------------------------------------|
A|-------------------------|-------------------------------------------------|-------------------------------------------------|
E|-------------------------|-------------------------------------------------|-------------------------------------------------|
  1 e + a 2 e + a  1 e + a 2 e + a 3 e + a 4 e + a  1 e + a 2 e + a 3 e + a 4 e + a

G|-------------------------------------------------|-------------------------------------------------|
D|-------------------------------------------------|-------------------------------------------------|
A|-------------------------------------------------|------------------------/10\--------/8\----------|
E|-------------------------------------------------|-------------------------------------------------|
  1 e + a 2 e + a 3 e + a 4 e + a  1 e + a 2 e + a 3 e + a 4 e + a

G|-------------------------------------------------|-------------------------------------------------|
D|----------8-----------------------8--------------|----------8--------------------------------------|
A|-6-----------------------6-----------------------|-6-----------------------6-----------3-----------|
E|-------------------6-----------------------6-----|-------------------6--------------3-----------1--|
  1 e + a 2 e + a 3 e + a 4 e + a  1 e + a 2 e + a 3 e + a 4 e + a

G|-------------------------------------------------|-------------------------------------------------|
D|-------------------------0h-1--------0h-1-----1--|-------------------------------------------------|
A|-1--------1-----1-----1-----------1--------------|-1--------1.----1/-------10----------8-----------|
E|-------------------------------------------------|----------------------------------8-----------6--|
  1 e + a 2 e + a 3 e + a 4 e + a  1 e + a 2 e + a 3 e + a 4 e + a

              /  3  \
G|-------------------------------------------------|-------------------------------------------------|
D|-------------------------------------------------|-------------------------------------------------|
A|-6--------6.-------------6---6---6---6.----5.----|-6--------6.-------------10----------8-----------|
E|-------------------6-----------------------------|-------------------6/-------------8-----------6--|
  1 e + a 2 e + a 3 e + a 4 e + a  1 e + a 2 e + a 3 e + a 4 e + a

              /  3  \
G|-------------------------------------------------|-------------------------------------------------|
D|-------------------------------------------------|-------------------------------12----------10----|
A|-6--------6.-------------6---6---6---6.----5.----|-6--------6.-------------10----------8-----------|
E|-------------------6-----------------------------|-------------------6/----------------------------|
  1 e + a 2 e + a 3 e + a 4 e + a  1 e + a 2 e + a 3 e + a 4 e + a

              /  3  \
G|-------------------------------------------------|-------------------------------------------------|
D|-------------------------------------------------|-------------------------------------------------|
A|-6--------6.-------------6---6---6---6.----5.----|-6--------6.-------------6--6.-------3--3.-------|
E|-------------------6-----------------------------|-------------------6-----------------------------|
  1 e + a 2 e + a 3 e + a 4 e + a  1 e + a 2 e + a 3 e + a 4 e + a

G|-------------------------------------------------|-------------------------------------------------|
D|-------------------------------------------------|-------------------------------------------------|
A|-------------------------5--6--------5--6--------|-------------------------------------------------|
E|-6--------6--------------------------------------|-6.-------6.-------6.----------------------------|
  1 e + a 2 e + a 3 e + a 4 e + a  1 e + a 2 e + a 3 e + a 4 e + a


Outro

G|----------19-------------19----------------------|----19-------------19-------------19-------------|
D|-------17-------------17-------------------------|-17-------------17-------------17----------------|
A|----20-------------20-------------------------20-|-------------20-------------20-------------------|
E|-18-------------18-------------18----18----18----|----------18-------------18----------18\---------|
  1 e + a 2 e + a 3 e + a 4 e + a  1 e + a 2 e + a 3 e + a 4 e + a

G|----------12-------------12----------------------|----12-------------12-------------12-------------|
D|-------10-------------10-------------------------|-10-------------10-------------10----------------|
A|----13-------------13-------------------------13-|-------------13-------------13-------------------|
E|-11-------------11-------------11----11----11----|----------11-------------11----------11/---------|
  1 e + a 2 e + a 3 e + a 4 e + a  1 e + a 2 e + a 3 e + a 4 e + a

G|----------19-------------19----------------------|----19-------------19-------------19-------------|
D|-------17-------------17-------------------------|-17-------------17-------------17----------------|
A|----20-------------20-------------------------20-|-------------20-------------20-------------------|
E|-18-------------18-------------18----18----18----|----------18-------------18----------18\---------|
  1 e + a 2 e + a 3 e + a 4 e + a  1 e + a 2 e + a 3 e + a 4 e + a

G|----------12-------------12----------------------|----12-------------12-------------12-------------|
D|-------10-------------10-------------------------|-10-------------10-------------10----------------|
A|----13-------------13-------------------------13-|-------------13-------------13-------------------|
E|-11-------------11-------------11----11----11----|----------11-------------11----------11/---------|
  1 e + a 2 e + a 3 e + a 4 e + a  1 e + a 2 e + a 3 e + a 4 e + a

G|----------19-------------19----------------------|----19-------------19-------------19-------------|
D|-------17-------------17-------------------------|-17-------------17-------------17----------------|
A|----20-------------20-------------------------20-|-------------20-------------20-------------------|
E|-18-------------18-------------18----18----18----|----------18-------------18----------18\---------|
  1 e + a 2 e + a 3 e + a 4 e + a  1 e + a 2 e + a 3 e + a 4 e + a

G|----------12-------------12----------------------|----12-------------12-------------12-------------|
D|-------10-------------10-------------------------|-10-------------10-------------10----------------|
A|----13-------------13-------------------------13-|-------------13-------------13-------------------|
E|-11-------------11-------------11----11----11----|----------11-------------11----------11/---------|
  1 e + a 2 e + a 3 e + a 4 e + a  1 e + a 2 e + a 3 e + a 4 e + a

G|----------19-------------19----17-17h19----------|----------19-------------19----17-17h19----------|
D|-------17-------------17-------------------------|-------17-------------17-------------------------|
A|----20-------------20----------------------------|----20-------------20----------------------------|
E|-18-------------18-------------------------------|-18-------------18-------------------------------|
  1 e + a 2 e + a 3 e + a 4 e + a  1 e + a 2 e + a 3 e + a 4 e + a

G|----------12-------------12----------------------|----12-------------12-------------12-------------|
D|-------10-------------10-------------------------|-10-------------10-------------10----------------|
A|----13-------------13-------------------------13-|-------------13-------------13-------------------|
E|-11-------------11-------------11----11----11----|----------11-------------11----------11\---------|
  1 e + a 2 e + a 3 e + a 4 e + a  1 e + a 2 e + a 3 e + a 4 e + a

G|-------------------------------------------------|
D|-------------------------------------------------|
A|-8-----------------------------------------------|
E|-6-----------------------------------------------|
  1 e + a 2 e + a 3 e + a 4 e + a


************************************

| h  Hammer-on
| p  Pull-off
| L  Tied note
| .  Staccato
| /  Slide up
| \  Slide down
| /3\ Triplets
| ^  Brush down

************************************

Almost there ...

Sign in to get your own page with links to favourite songs and more. You are just one click away...

Login with Facebook Login with Google